Idlewild - Last Night I Missed All The Fireworks Chords & Tabs

 

Last Night I Missed All The Fireworks Chords & Tabs

Idlewild Chords & Tabs

Version: 2 Type: Bass Tab 0 ratings
1 star 2 stars 3 stars 4 stars 5 stars
comments

Last Night I Missed All The Fireworks Bass Tab

band:idlewild
song:last night i missed all the fireworks
bassist:bob fairfoul
tabber:paul(idlewild@users.basstabarchive.com

                         x3
g--0-0-0-0-----------------------------
d-*--------2-2-2-0-0-0-0-*-------------
a-*----------------------*-3-3-3-3-3-3-
e--------------------------------------
[ Tab from: http://www.guitartabs.cc/tabs/i/idlewild/last_night_i_missed_all_the_fireworks_btab_ver_2.html ]
"i must wear linen dye, i must be 75"
                        x3
g--0--------------------------------
d-*------3------------*-------------
a-*-----------3-----5-*-3-3-3-3-3-3-
e-----------------------------------

"but i said your room is very cold"
g-0-------0----------
d---3-1-0---3-1-0----
a--------------------
e--------------------

"FIND YOUR SOULDMATE, FIND YOUR SOULMATE!!" and ending
g---------------
d-*-4----------*
a-*---5---5-4--*
e-------5-------
Comments