Idlewild - I Never Wanted Chords & Tabs

 

I Never Wanted Chords & Tabs

Idlewild Chords & Tabs

Version: 1 Type: Tab 1 rating
1 star 2 stars 3 stars 4 stars 5 stars
comments

I Never Wanted Tab

all i never wanted- idlewild

bass intro. thennn. 

Guitar intro
|-----------------------------------------------------------------
|-----------------------------------------------------------------
|----6-7-6---6---6-7-6-9-6---6-7-6--6---6-7-6-9-------------------
|---7------7---4-----------7-------7--4---------------------------
|-----------------------------------------------------------------
|-----------------------------------------------------------------

riff 1.   " ..i created myself...".    slide-ish thing
|-----------------------------------------------------------------
|-----------------------------------------------------------------
|--6-4-4-6-9-6-4-6-11-13-11-13-11-9-7-9-6-------------------------
|-----------------------------------------------------------------
|-----------------------------------------------------------------
|-----------------------------------------------------------------

riff 2.   "..the days wont let you..."
|-----------------------------------------------------------------
|--15-15-15-15-15-15-14-14-10-10-9-9-9-9-10-12--------------------
|-----------------------------------------------------------------
|-----------------------------------------------------------------
|-----------------------------------------------------------------
|-----------------------------------------------------------------
[ Tab from: http://www.guitartabs.cc/tabs/i/idlewild/i_never_wanted_tab.html ]
riff 3. 
|-----------------------------------------------------------------
|--15-15-15-15-15-15-14-14-10-10-10-10-12-12-12-14-14-14-17-17-17-
|-----------------------------------------------------------------
|-----------------------------------------------------------------
|-----------------------------------------------------------------
|-----------------------------------------------------------------

riff 4.   " .. i never wanted..."
|-----------------------------------------------------------------
|-----------------------------------------------------------------
|--/11-11-11-11-11-11-11-\9--7-6--/13-13-13-14-13-11--------------
|-----------------------------------------------------------------
|-----------------------------------------------------------------
|-----------------------------------------------------------------
     



then. there is an acoustic bit. 

acou. riff "...there is no reason.."
|---------------|---------------|---------------|--------------------
|-------7-------|-------4-------|-------2-------|--------4-----------
|---9-----9---9-|---6-----6---6-|---4-----4---4-|----6-----6---6-----
|-7---7-----7---|-4---4-----4---|-2---2-----2---|--4---4-----4-------
|---------------|---------------|---------------|--------------------
|---------------|---------------|---------------|--------------------
      x2                x2              x2                x1
 

riff 5. in background.
|-----------------------------------------------------------------
|-10-10-10-10-7-7-9-10-14-14-14-14-15-15-14-12--------------------
|-----------------------------------------------------------------
|-----------------------------------------------------------------
|-----------------------------------------------------------------
|-----------------------------------------------------------------



the order is.

riff 1  x2
riff 2  x1
riff 3  x1
riff 4  x4
riff 1  x2
riff 2  x1
riff 3  x1
riff 4  x5
acou.   x2
riff 4  x13    on the 9th time. riff 5 joins till the end




tabbed by lewis herd.  
any corrections or comments . email me    
lewis_herd@hotmail.com.

Comments