Idlewild - I Found That Essence Rare Chords & Tabs

 

I Found That Essence Rare Chords & Tabs

Idlewild Chords & Tabs

Version: 1 Type: Tab 0 ratings
1 star 2 stars 3 stars 4 stars 5 stars
comments

I Found That Essence Rare Tab

   
#----------------------------------PLEASE NOTE---------------------------------#
#This file is the author's own work and represents their interpretation of the #
#song. You may only use this file for private study, scholarship, or research. #
#------------------------------------------------------------------------------#

Idlewild - I Found That Essence Rare
Cd - n/a (not on any official releases)
Transcribed by Kevin Ryan
MrRabies@hotmail.com


Idlewild cover of Gang Of Four's - I Found That Essence Rare, i've
tabbed the radio version of it, it is played failry similar n live
appearances though.



Intro:

E [-----------------------------------------------------------------]
B [-----------------------------------------------------------------]
G [-----6-------6-------6-------6-------6-------6-------6-------6---]
D [---6---6---6---6---6---6---6---6---6---6---6---6---6---6---6---6-] (x2)
A [-6-------6-------6-------6-------6-------6-------6-------6-------]
E [-----------------------------------------------------------------]


    v   v   v n   n   n   n v n v n   v   v   v n   n   n   n v n v n
E [-------------------------------------------------------------------]
B [-------------------------------------------------------------------]
G [-8---8---x-8---8---8---8-8-8-8-8---8---8---x-8---8---8---8-8-8-8-8-]
D [-8---8---x-8---8---8---8-8-8-8-8---8---8---x-8---8---8---8-8-8-8-8-] (x2)
A [-6---6---x-6---6---6---6-6-6-6-6---6---6---x-6---6---6---6-6-6-6-6-]
E [-------------------------------------------------------------------]


    v        v    n v n v   v   v n   n   n   n v n v n
E [-----------------------------------------------------]
B [-----------------------------------------------------]
G [----------6----6-6-6-8---8---x-8---8---8---8-8-8-8-8-]
D [-6--------6----6-6-6-8---8---x-8---8---8---8-8-8-8-8-] 
A [-6--------4----4-4-4-6---6---x-6---6---6---6-6-6-6-6-]
E [-4---------------------------------------------------]


    v         n v n         n v   v n v n v n v n   n v n v n v n
E [---------------------------------------------------------------]
B [---------------------------------------------------------------]
G [---------------------------------------------------------------]
D [-9---------9-9-8---------8-8---3-3-3-3-3-3-3-3-x-3-3-3-3-3-3-3-] 
A [-9---------9-9-8---------8-8---3-3-3-3-3-3-3-3-x-3-3-3-3-3-3-3-]
E [-7---------7-7-6---------6-6---1-1-1-1-1-1-1-1-x-1-1-1-1-1-1-1-]




Verse 1:

    v   v   v n   n   n   n v n v n   v   v   v n   n   n   n v n v n
E [-------------------------------------------------------------------]
B [-------------------------------------------------------------------]
G [-8---8---x-8---8---8---8-8-8-8-8---8---8---x-8---8---8---8-8-8-8-8-]
D [-8---8---x-8---8---8---8-8-8-8-8---8---8---x-8---8---8---8-8-8-8-8-] (x4)
A [-6---6---x-6---6---6---6-6-6-6-6---6---6---x-6---6---6---6-6-6-6-6-]
E [-------------------------------------------------------------------]





Chorus:

    v        v    n v n v   v   v n   n   n   n v n v n
E [-----------------------------------------------------]
B [-----------------------------------------------------]
G [----------6----6-6-6-8---8---x-8---8---8---8-8-8-8-8-]
D [-6--------6----6-6-6-8---8---x-8---8---8---8-8-8-8-8-] 
A [-6--------4----4-4-4-6---6---x-6---6---6---6-6-6-6-6-]
E [-4---------------------------------------------------]


    v         n v n         n v   v n v n v n v n   n v n v n v n
E [---------------------------------------------------------------]
B [---------------------------------------------------------------]
G [---------------------------------------------------------------]
D [-9---------9-9-8---------8-8---3-3-3-3-3-3-3-3-x-3-3-3-3-3-3-3-] 
A [-9---------9-9-8---------8-8---3-3-3-3-3-3-3-3-x-3-3-3-3-3-3-3-]
E [-7---------7-7-6---------6-6---1-1-1-1-1-1-1-1-x-1-1-1-1-1-1-1-]




Verse 2:

    v   v   v n   n   n   n v n v n   v   v   v n   n   n   n v n v n
E [-------------------------------------------------------------------]
B [-------------------------------------------------------------------]
G [-8---8---x-8---8---8---8-8-8-8-8---8---8---x-8---8---8---8-8-8-8-8-]
D [-8---8---x-8---8---8---8-8-8-8-8---8---8---x-8---8---8---8-8-8-8-8-] (x4)
A [-6---6---x-6---6---6---6-6-6-6-6---6---6---x-6---6---6---6-6-6-6-6-]
E [-------------------------------------------------------------------]





Chorus:

    v        v    n v n v   v   v n   n   n   n v n v n
E [-----------------------------------------------------]
B [-----------------------------------------------------]
G [----------6----6-6-6-8---8---x-8---8---8---8-8-8-8-8-]
D [-6--------6----6-6-6-8---8---x-8---8---8---8-8-8-8-8-] 
A [-6--------4----4-4-4-6---6---x-6---6---6---6-6-6-6-6-]
E [-4---------------------------------------------------]

[ Tab from: http://www.guitartabs.cc/tabs/i/idlewild/i_found_that_essence_rare_tab.html ]
    v         n v n         n v   v n v n v n v n   n v n v n v n
E [---------------------------------------------------------------]
B [---------------------------------------------------------------]
G [---------------------------------------------------------------]
D [-9---------9-9-8---------8-8---3-3-3-3-3-3-3-3-x-3-3-3-3-3-3-3-] 
A [-9---------9-9-8---------8-8---3-3-3-3-3-3-3-3-x-3-3-3-3-3-3-3-]
E [-7---------7-7-6---------6-6---1-1-1-1-1-1-1-1-x-1-1-1-1-1-1-1-]




Bridge:

G [-----------]
D [-----------]
A [-2-1-------] Bass Riff
Eb[-----5-3-0-]




Chorus:

    v        v    n v n v   v   v n   n   n   n v n v n
E [-----------------------------------------------------]
B [-----------------------------------------------------]
G [----------6----6-6-6-8---8---x-8---8---8---8-8-8-8-8-]
D [-6--------6----6-6-6-8---8---x-8---8---8---8-8-8-8-8-] 
A [-6--------4----4-4-4-6---6---x-6---6---6---6-6-6-6-6-]
E [-4---------------------------------------------------]


    v         n v n         n v   v n v n v n v n   n v n v n v n
E [---------------------------------------------------------------]
B [---------------------------------------------------------------]
G [---------------------------------------------------------------]
D [-9---------9-9-8---------8-8---3-3-3-3-3-3-3-3-x-3-3-3-3-3-3-3-] 
A [-9---------9-9-8---------8-8---3-3-3-3-3-3-3-3-x-3-3-3-3-3-3-3-]
E [-7---------7-7-6---------6-6---1-1-1-1-1-1-1-1-x-1-1-1-1-1-1-1-]




Verse 3:

    v   v   v n   n   n   n v n v n   v   v   v n   n   n   n v n v n
E [-------------------------------------------------------------------]
B [-------------------------------------------------------------------]
G [-8---8---x-8---8---8---8-8-8-8-8---8---8---x-8---8---8---8-8-8-8-8-]
D [-8---8---x-8---8---8---8-8-8-8-8---8---8---x-8---8---8---8-8-8-8-8-] (x4)
A [-6---6---x-6---6---6---6-6-6-6-6---6---6---x-6---6---6---6-6-6-6-6-]
E [-------------------------------------------------------------------]




Chorus:

    v        v    n v n v   v   v n   n   n   n v n v n
E [-----------------------------------------------------]
B [-----------------------------------------------------]
G [----------6----6-6-6-8---8---x-8---8---8---8-8-8-8-8-]
D [-6--------6----6-6-6-8---8---x-8---8---8---8-8-8-8-8-] 
A [-6--------4----4-4-4-6---6---x-6---6---6---6-6-6-6-6-]
E [-4---------------------------------------------------]


    v         n v n         n v   v n v n v n v n   n v n v n v n
E [---------------------------------------------------------------]
B [---------------------------------------------------------------]
G [---------------------------------------------------------------]
D [-9---------9-9-8---------8-8---3-3-3-3-3-3-3-3-x-3-3-3-3-3-3-3-] 
A [-9---------9-9-8---------8-8---3-3-3-3-3-3-3-3-x-3-3-3-3-3-3-3-]
E [-7---------7-7-6---------6-6---1-1-1-1-1-1-1-1-x-1-1-1-1-1-1-1-]




Outro:

       v   v   v   v   v   v   v   v
E [----------------------------------]
B [----------------------------------]
G [----8---8---8---8---8---8---8---8-]
D [----8---8---8---8---8---8---8---8-] 
A [----6---6---6---6---6---6---6---6-]
E [----------------------------------]


    v        v    n v n v   v   v n   n   n   n v n v n
E [-----------------------------------------------------]
B [-----------------------------------------------------]
G [----------6----6-6-6-8---8---x-8---8---8---8-8-8-8-8-]
D [-6--------6----6-6-6-8---8---x-8---8---8---8-8-8-8-8-] 
A [-6--------4----4-4-4-6---6---x-6---6---6---6-6-6-6-6-]
E [-4---------------------------------------------------]


    v         n v n         n v n v
E [---------------------------------]
B [---------------------------------]
G [---------------------------------]
D [-9---------9-9-8---------8-8-8-6-] 
A [-9---------9-9-8---------8-8-8-6-]
E [-7---------7-7-6---------6-6-6-4-]



-------------------------------------------------------------------



During the verse Rod plays the lead over the strumming pattern.
Its almost the sqme in every verse.
It is something like this:

E [-------------------------------------------------------]
B [-----------7-9b11r9-7-------------16-16-16-16-16-16-16-]
G [---6-8-8--------------8---8---8------------------------]
D [-8-----------------------------------------------------] Riff 1
A [-------------------------------------------------------]
E [-------------------------------------------------------]

E [------------------------]
B [------------------------]
G [-----6---8-8b10---8-----]
D [-8--------------------6-] Riff 2
A [------------------------]
E [------------------------]

You will have to listen to the song to see the exact timing
of where these riffs fit in. Play riff 1, then riff 2
and then back to riff 1 again.
In verse 3 though, riff 1 is played then riff 2, but instead
of repeating riff 1 play this:

E [----------------------]
B [-16-16-16-16-16-16-16-]
G [----------------------]
D [----------------------] Riff 3
A [----------------------]
E [----------------------]



--------------------------------------------------------------------

b - bend string
r - release string
x - mute note
v - strum up
n - strum down

----------------------------------------------------------------------

Any comments or corrections, send me an email to 
MrRabies@hotmail.com
Comments