Idlewild - American English Chords & Tabs

 

American English Chords & Tabs

Idlewild Chords & Tabs

Version: 1 Type: Tab 0 ratings
1 star 2 stars 3 stars 4 stars 5 stars
comments

American English Tab

   
#----------------------------------PLEASE NOTE---------------------------------#
#This file is the author's own work and represents their interpretation of the #
#song. You may only use this file for private study, scholarship, or research. #
#------------------------------------------------------------------------------#

Idlewild:    American english
tabbed by:   keith clark      20/6/02
email:       mrnicesg@blueyonder.co.uk

Power Chords
B    =799xxx
Abm  =466xxx
E    =022xxx
F#   =244xxx

Intro:
e----------------------------------------
B------12--12----------------------------
G---------------11--11-------------------
D-----------------------14--14--13--13---
A----------------------------------------
E----------------------------------------


Verse: (is the same as the intro)
e----------------------------------------
B------12--12----------------------------
G---------------11--11-------------------
D-----------------------14--14--13--13---
A----------------------------------------


Bridge:
e----------------------------------------
B----------------------------------------
G----------------------------------------
D-----8--8--9--9--11--11-9--9------------
A----------------------------------------
E----------------------------------------Repeat till chorus
E----------------------------------------

Acoustic:
B         F#      Abm      E
B         F#      Abm      E....................B


Hope this is enough
sorry couldnt work out tab for the chorus 
please feel free to eamil me with it and ill update it cheers


****************************************************************************************************************

Idlewild
American English (Intro/Main Riff)
Tabbed by cutecactuar (cutecactuar@hotmail.com)

e:7------  
b:--7-5-4  
g:-------  repeat a load of times
d:-------
a:-------
e:-------

This is the main riff for the song. More when I work it out!!!


***************************************************************************************************************

Idle Wild- American English
Here we go.Tune down 1/2 a step
Intro: Guitar 1 (Electric). This is in the shape of F on the 8th fret. 
This is played through most of the song.
[ Tab from: http://www.guitartabs.cc/tabs/i/idlewild/american_english_tab.html ]
e  8----------
B ---8-------
G -----9-----
D --------10
A ------------
E -------------

I'm not sure what else is played by guitar 1 throughout but I'm 
sure if you play around with the chord shapes up and down the guitar you'll
get it. Chords are shown below.

Guitar 2 (Acoustic). The chords are as follows. (Listen to song for strum 
pattern and changes)

Verse C-Am-F-C

Bridge G-F-Am-G

Chorus C-G-Am-G

Refrain (" I won't tell…." Etc)
G-F-Am-G

Exit You've been playing two bars for each chord up to now. This time play 
verse except for one bar (strum pattern twice). Finish song on "C".

I think there could be another guitar in the chorus but it may be the bass 
or an added one for the radio edit. There's also a piano.

Not Bad for my First tab Eh? If you have any comments etc, send them to
well_have_less_o_that_matey@hotmail.com

**********************************************************************************************************

IDLEWILD - AMERICAN ENGLISH   (best version here)


I first heard this song when i saw them live at Brixton
Academy supporting the Hives. I fell in love with this song.

Anyways - enjoy it. This is the best tab of this song on here,
the rest are so rubbish I had to tab it myself.
This is my first tab - hope you think it sounds ok!!!


Have fun


Chords to use:
B -  799877
Abm- 466444
E -  022100
F# - 244322

Intro: (this is played 3 times before the chords + vocals kick in)

Guitar 1 plays this throughout every verse.

e-----------------
B-13--------------
G---12------------
D------15---14----
A-----------------
E-----------------

Tabbed by Liam - Norwich, Norfolk, England.
If you have any comments, or improvements - email me:
Conservative_me@hotmail.com

****************************************************************************************************************

Great new song. Not sure about the words at the end, but close enough.

OKay here is the verse riff

E----------------
B--12-----------
G-----11--9--8--
D---------------
A----------------
E----------------

**********************************************************************************************************



Comments