Idlewild - All This Information Chords & Tabs

 

All This Information Chords & Tabs

Idlewild Chords & Tabs

Version: 1 Type: Tab 0 ratings
1 star 2 stars 3 stars 4 stars 5 stars
comments

All This Information Tab

   
Artist:  Idlewild
Song:    All This Information, 
Tabbed by: Graeme
E-Mail: Maxpassed@aol.com


B-side to you held the world in your arms, CD1

You'll have to listen to the CD for rhythm etc

Standard tuning
[ Tab from: http://www.guitartabs.cc/tabs/i/idlewild/all_this_information_tab.html ]
Chords                 ?
   A5  B5  C#5  E5 C#/B5 G#5
e|---------------------------|
B|---------------------------|
G|-----4----6----9---4-------|
D|-7---4----6----9---4----6--|
A|-7---2----4----7---4----6--|
E|-5----------------------4--|


Intro/Verse  Let ring throughout

e|-----------------------------|
B|*---------------------------*|
G|------4-----4------9---9-----|
D|----4-----4------9-------9---|
A|*-2-----4------7-----7------*|
E|-----------------------------|


Pre-Chorus

|A5  |C#5  |B5  |B5  | 

Chorus

|E5  |A5   |G#5 |A5  |

Interlude

Just apergio through an E barre chord

|E5~   |
Comments