Idlewild - A Modern Way Of Letting Go Chords & Tabs

 

A Modern Way Of Letting Go Chords & Tabs

Idlewild Chords & Tabs

Version: 4 Type: Tab 0 ratings
1 star 2 stars 3 stars 4 stars 5 stars
comments

A Modern Way Of Letting Go Tab

   
Band - Idlewild
Song - A Modren Way of Letting Go
Album - The Remote Part
Tuning - Drop D

Lots of parts but a kickass song!

Intro Riff

e:---------------------------------------------------------------:
b:---------------------------------------------------------------:
g:---------------------------------------------------------------:
d:-1/3-3-3-3-3/1-1-1/6-6-6-6-6-6/1-1-1/3-3-3-3-3/1-1-1/6-6-6-6-6-:   x 2
a:-1/3-3-3-3-3/1-1-1/6-6-6-6-6-6/1-1-1/3-3-3-3-3/1-1-1/6-6-6-6-6-:
D:-1/3-3-3-3-3/1-1-1/6-6-6-6-6-6/1-1-1/3-3-3-3-3/1-1-1/6-6-6-6-6-:


Verse

"If I know what I know..."
[ Tab from: http://www.guitartabs.cc/tabs/i/idlewild/a_modern_way_of_letting_go_tab_ver_4.html ]
e:-----------------------------------------------------------------:
b:-----------------------------------------------------------------:
g:-6-6-6-6-6-6-6-6-3-3-3-3-3-3-3-3---------------------------------:
D:-6-6-6-6-6-6-6-6-3-3-3-3-3-3-3-3-3-3-3-3-3-3-3-3-1-1-1-1-1-1-1-1-:
a:-4-4-4-4-4-4-4-4-1-1-1-1-1-1-1-1-3-3-3-3-3-3-3-3-1-1-1-1-1-1-1-1-:
D:---------------------------------3-3-3-3-3-3-3-3-1-1-1-1-1-1-1-1-:

Pre-Chorus

"You Can Only Be Yourself..."

e:--------------------------------------------------------------------:
b:--------------------------------------------------------------------:
g:---------------------8-8-8-8-8-8---------------------------------6--:
d:-3-3-3-3-3-6-6-6-6-6-8-8-8-8-8-8-8-8-8-8-8-8---------------------6--:  x2
a:-3-3-3-3-3-6-6-6-6-6-6-6-6-6-6-6-8-8-8-8-8-8---2nd time ends on--4--:
D:-3-3-3-3-3-6-6-6-6-6-------------8-8-8-8-8-8------------------------:

Chorus

"How Long Will We Go On..."

e:---------------------------------:
b:---------------------------------:
g:-----------------8-------6-------:
d:-3-------6-------8-------6--x12--:   x 2
a:-3--x12--6--x12--6--x12--4-------:
D:-3-------6-----------------------:

Repeat the whole thing again...

Any Suggestions...Doms_BeerCo@Hotmail.com
Comments