Idle - Psycho Chords & Tabs

 

Psycho Chords & Tabs

Idle Chords & Tabs

Version: 1 Type: Bass Tab 0 ratings
1 star 2 stars 3 stars 4 stars 5 stars
comments

Psycho Bass Tab

IDLE
phyco

7-string guitar
intro:
4----------------|
3----------------|
2--------2---1---|
1---0------------|

riff1:
4---------44444---33333----------|
3--22222--44444---33333----------|
2--22222--22222---11111----------|
1--00000-------------------------|
[ Tab from: http://www.guitartabs.cc/tabs/i/idle/psycho_btab.html ]
riff2:
4--------4---3------|
3--------x---x------|
2--------2---1------|
1---0---------------|

riff3:
4----------------------5-4------|
3----------------------5-4------|
2----------------------3-2------|
1-00-xx-00-xx-00-xx-0-----------|

BAND members:

Garrett kenny(vocals)
Josh Cardoza(guitar)
Damian Regalado(bass)
Justin McFarland(drumms)
Comments