Idiot Pilot - To Buy A Gun Chords & Tabs

 

To Buy A Gun Chords & Tabs

Idiot Pilot Chords & Tabs

Version: 1 Type: Tab 0 ratings
1 star 2 stars 3 stars 4 stars 5 stars
comments

To Buy A Gun Tab

this is a song from a great new up coming band 
Idiot Pilot
to buy a gun
Tabber = VICH



intro and verse(not clean, but low distortion)
e|-------------------------------------------------|
B|-------------------------------------------------|
G|-12------11--------------------------------------|
D|-12-(x4)-11-(x6)--7--------9---------------------|
A|-10------9--------7-(x4)---9--(x6)---------------|
E|------------------5--------7---------------------|

chorus (hard distortion)"CAUSE THATS ALL IT TAKES TO BUY A GUN"
e|-------------------------------------------------|
B|-------------------------------------------------|
G|-------------------------------------------------|
D|-2-22-2-22-20--77777777--99999999----------------|
A|-2-22-2-22-20--77777777--99999999----(x3)--------|
E|-0-00-0-00-00--55555555--77777777----------------|



e|-------------------------------------------------|
B|-------------------------------------------------|
G|-------------------------------------------------|
D|-2-22-2-22-20--77777777--33333333----------------|
A|-2-22-2-22-20--77777777--33333333----------------|
E|-0-00-0-00-00--55555555--11111111----------------|
[ Tab from: http://www.guitartabs.cc/tabs/i/idiot_pilot/to_buy_a_gun_tab.html ]
(the screamy part that no one understands)
e|-------------------------------------------------|
B|-------------------------------------------------|
G|-------------------------------------------------|
D|----3b---5b---7b---------------------------------|
A|----3b---5b---7b--(x2)---------------------------|
E|--0----0----0------------------------------------|


e|-------------------------------------------------|
B|-------------------------------------------------|
G|-------------------------------------------------|
D|----3b---5b---7b---------------------------------|
A|----3b---5b---7b--(x2)---------------------------|
E|--0----0----0------------------------------------|

bridge(half way through the mario brother theme sounding interlude)(clean)
e|-------------------------------------------------|
B|-------------------------------------------------|
G|------12----12----12---11---11---11--------------|
D|---10----10----10----9----9----9-----------------|
A|-------------------------------------------------|
E|-------------------------------------------------|


e|-------------------------------------------------|
B|-------------------------------------------------|
G|-------------------------------------------------|
D|-----9---9---9---11---11---11--------------------|
A|---7---7---7---9----9----9-----------------------|
E|-------------------------------------------------|

outro (distortion)
e|-------------------------------------------------|
B|-------------------------------------------------|
G|-------------------------------------------------|
D|-2-22-2-22-20--77777777--99999999----------------|
A|-2-22-2-22-20--77777777--99999999----(x3)--------|
E|-0-00-0-00-00--55555555--77777777----------------|
Comments