Idina Menzel - Let It Go Chords & Tabs

 

Let It Go Chords & Tabs

Idina Menzel Chords & Tabs

Version: 1 Type: Tab 0 ratings
1 star 2 stars 3 stars 4 stars 5 stars
comments

Let It Go Tab

   
Let It Go
Chorus Tab
Tabbed by Amos Lim http://www.youtube.com/watch?v=pCQJreJ1Fj4
Transcribed by Jesper Eriksson

Capo 3rd

        C       G     Am             F
|---------|---0-----|------------|-------|
|---0-1---|-----3---|-1p---------|-0-1---|
|-2-------|-0-------|----2-2-2-2-|-------|
|---------|---------|------------|-----3-|
|-------3-|---------|----0-------|-------|
|---------|-------3-|------------|-------|
[ Tab from: http://www.guitartabs.cc/tabs/i/idina_menzel/let_it_go_tab.html ]
        C       G         Am       F
|---------|---0---------|-0-0-0-1p-----|
|---0-1---|-----3---1-3-|----------1---|
|-2-------|-0-----------|--------------|
|---------|-------------|------------3-|
|-------3-|-------------|-0------------|
|---------|-------3-----|--------------|

C       G     Am      F
|-3-0-x-0-----|-3-0-x-1-|
|-1---x-3-1-1-|-1---x-1-|
|-0---x-0-----|-2---x-2-|
|-----x-------|-2---x-3-|
|-3---x-------|-----x---|
|-----x-3-----|-----x---|

Strum
Am G C
Comments