Idina Menzel - Let It Go Chords & Tabs

 

Let It Go Chords & Tabs

Idina Menzel Chords & Tabs

Version: 2 Type: Bass Tab 0 ratings
1 star 2 stars 3 stars 4 stars 5 stars
comments

Let It Go Bass Tab

-----------------------------------------------------------------------------
			     Let it Go - Idina Menzel
-----------------------------------------------------------------------------
Tabbed by: Riley Molnar
E-mail: riley3212@hotmail.com

Tuning: Standard

First version so all feedback is appreciated.  


Intro/Verse 1

G|-----------------|-----------------|
D|4:---------------|-1---------------| x3
A|4:-------4-------|---------1-------|
E|--1--------------|-----------------|

G|-----------------|-----------------|
D|-----------------|-1---------------| 
A|---------4-------|-----------------|
E|-1---------------|-----------------|


Pre-Chorus 1

G|-----------------|-----------------|-----------------|-----------------|
D|-----------------|-----------------|-----------------|-----------------|
A|-6-------6-------|-4-------4-----4-|-6-------6-----6-|-4-------4-------|
E|-----------------|-----------------|-----------------|-----------------|

G|-----------------|
D|-----------------|
A|-4-------4-------|
E|-----------------|


Chrous

G|-----------------|-----------------|-----------------|-----------------|
D|4:-------1-------|-----------------|-----------------|-3-----3---------|
A|4:---------------|----------4------|---------4-5-6---|---------4-------|
E|--4--------------|-1-----1---------|-2-3-4-----------|-----------------|
[ Tab from: http://www.guitartabs.cc/tabs/i/idina_menzel/let_it_go_btab_ver_2.html ]
G|-----------------|-----------------|-----------------|-----------------|
D|---------1-------|-3---------------|-----------------|-----------------|
A|-----------------|---------4-------|-3-------2-------|-4---------------|
E|-4---------------|-----------------|-----------------|-----------------|



Verse 2

G|-----------------|-----------------|-----------------|-----------------|
D|---------1-1-1-1-|-3-3-3-3---------|-1-1-1-1---------|-3-3-3-3---------|
A|-----------------|---------4-4-4-4-|---------1-1-1-1-|---------4-4-4-4-|
E|-4-4-4-4---------|-----------------|-----------------|-----------------|

G|-----------------|
D|-----------------|
A|-1--1----1--1----|
E|-----------------|


Pre-Chorus 2					

G|-----------------|-----------------|-----------------|
D|-----------------|-----------------|-----------------|
A|-6-------6-----6-|-4-------4-----4-|-6-------6-------|
E|-----------------|-----------------|-----------------|

G|-----------------|-----------|
D|-----------------|2:---------|
A|-4-4-4-4-44444444|4:-44444---|
E|-----------------|-----------|


Chorus


Bridge

G|-----------------|-----------------|-----------------|-----------------|
D|---Rest 2 Bars---|-----------------|-----------------|-----------------|
A|-----------------|-4---------------|---------------4-|-4---------------|
E|-----------------|-----------------|-----------------|-----------------|

G|-----------------|-----------------|-----------------|-----------------|
D|-----------------|-1---------------|-----------------|-----------------|
A|-----------------|-----------------|-----------------|-----------------|
E|-----------------|-----------------|-----------------|-1---------------|

G|-----------------|-----------|
D|-----------------|2:---------|
A|-----------------|4:---------|
E|-3-3-3-3-33333333|-33333-/12\|

Chorus
(finish with build up on B)

End


http://www.guitartabcreator.com
Comments