Idina Menzel - Let It Go Chords & Tabs

 

Let It Go Chords & Tabs

Idina Menzel Chords & Tabs

Version: 1 Type: Bass Tab 0 ratings
1 star 2 stars 3 stars 4 stars 5 stars
comments

Let It Go Bass Tab

Begin @ 1:28

Gb|-2-2-2-2-1-1-1-1-------------------------------------|
Db|----------------4-4-4-4-0-0-0-0--2-2-2-2-------------|
Ab|------------------------------0----------2-2-2-2-2-4-|
Eb|-----------------------------------------------------|

Gb|--------------------4-------------------------------|
Db|-4-4-4-4-2-2-2-2-----4-2-1-4-1----------------------|
Ab|----------------2-------------2---------------------|
Eb|---------------0---------------0--------------------|

Gb|---------------------------------------------------|
Db|-2-2-0----0-----------------------------------7----|
Ab|-----------0------------5-7-5------5-5-5-5-7-5-7-5-|
Eb|------------0-------0-7----------------------------|

Gb|---------------------------------------------------|
Db|--------------2-2-------------0--0-0--0------------|
Ab|-0-0-0-2-----2---2--------------0----0-------------|
Eb|---------0--------0--2-2-2-2-0---------------------|

Gb|---------------------------------------------------|
Db|------------------2-2------------4-2-0--0-0--0-----|
Ab|-0-0-0-0--0-2----2----2---------4------0----0------|
Eb|--------------0--------0--2-2-5--------------------|

Gb|---------------------------------------------------|
Db|--------------2--------------4-2-0-----------------|
Ab|-0-0-x------2----2----------4------0-0-0-0-0-0-0-0-|
Eb|-------0-----------0-0-1-2-------------------------|

Gb|---------------------------------------------------|
Db|---------------------------------------------------|
Ab|-4-4---3--3-3-3-3-3-3-3-3-5------------------------|
Eb|-----4---------------------------------------------|

Begin again @ 2:58
[ Tab from: http://www.guitartabs.cc/tabs/i/idina_menzel/let_it_go_btab.html ]
Gb|---------------------------------------------------|
Db|---------------------------------------------------|
Ab|-7-7-7-7---------5-5-5-5-/17\-5--------------------|
Eb|---------7-7-7-7-----------------------------------|

Gb|------2--------------------------------------------|
Db|-----2-2------2---2---------4---4----2-0--0-0--0---|
Ab|-0-0-----0--2---2---2-----4------4-----------------|
Eb|---------------------0--2--------------------------|

Gb|------2--------------------------------------------|
Db|-----2-2------2---2---------4---4----2-0--0-0--0---|
Ab|-0-0-----0--2---2---2-----4------4-----------------|
Eb|---------------------0--2--------------------------|

Gb|---------------------------------------------------|
Db|-0/12-12-12--12-12---------------------------------|
Ab|---------------------------------------------------|
Eb|---------------------------------------------------|

Gb|-----2---------------------------------------------|
Db|---2----------2---2--------------------------------|
Ab|-0-----x----2---2---2------------------------------|
Eb|----------0----------0---2-2-----------------------|

Gb|---------------------------------------------------|
Db|0--0-0-0-0-0-0-0-0---------------------------------|
Ab|-------------------0--4-4--3-----------------------|
Eb|-------------------------4-------------------------|

Gb|---------------------------------------------------|
Db|---------------------------------------------------|
Ab|-3-3-3-3-3-3-3-3-3-3-3-3---------------------------|
Eb|---------------------------------------------------|


Credits go to Badward
http://www.youtube.com/watch?v=OWmnB1iJ804
watch him cover the song
Comments