Icehouse - Great Southern Land Chords & Tabs

 

Great Southern Land Chords & Tabs

Icehouse Chords & Tabs

Version: 2 Type: Bass Tab 0 ratings
1 star 2 stars 3 stars 4 stars 5 stars
comments

Great Southern Land Bass Tab

ICEHOUSE - "Great Southern Land" - Bass Tab

Common Time(4/4)
Standard Tuning(EADG)

VERSE:
|------------------|-----------------|-----------------|
|*-----------------|-----------------|-----------------|
|*-----------------|-----------------|-----------------|
|--5-5-5-5-5-5-5-5-|-5-5-5-5-5-5-5-5-|-7-7-7-7-7-7-7-7-|
   1 & 2 & 3 & 4 &   1 & 2 & 3 & 4 &   1 & 2 & 3 & 4 &
[ Tab from: http://www.guitartabs.cc/tabs/i/icehouse/great_southern_land_btab_ver_2.html ]
|------------------|
|-----------------*|
|-----------------*|
|-7-7-7-7-7-7-7-7--|
  1 & 2 & 3 & 4 &

CHORUS:
|-------------------|-------------------|-------------------|
|*-----------------*|*-----------------*|*-----------------*|
|*-4-4-4-4-4-4-4-4-*|*-----------------*|*-4-4-4-4-4-4-4-4-*|
|-------------------|--4-4-4-4-4-4-4-4--|-------------------|
   1 & 2 & 3 & 4 &     1 & 2 & 3 & 4 &     1 & 2 & 3 & 4 &

By: Johari Taylor
E-mail: viking@powerup.com.au


Comments