Iced Earth - Funeral Chords & Tabs

 

Funeral Chords & Tabs

Iced Earth Chords & Tabs

Version: 1 Type: Tab 0 ratings
1 star 2 stars 3 stars 4 stars 5 stars
comments

Funeral Tab

   
Iced Earth - Funeral
Tabbed and transcribed by HellPatrol (hellpatrol69x@geocities.com)
Listen to the record for timing and how much each
riff is played.
This and other tabs can be found on my page.
Go check it out at http://www.geocities.com/BourbonStreet/Quarter/1571/
Tune down to Eb.

1.
  E5
|----0------0-----0---0-|
|-10---10-9---9-6---6---|
|-----------------------|
|-----------------------|
|-----------------------|
|-----------------------|

2.
  G5
|-----------------------------|
|----0-------0------0---------|
|-12---12-11---11-7---7-4-5-4-|
|-----------------------------|
|-----------------------------|
|-----------------------------|
end 2.

3.
|-----------------------|
|-----------------------|
|-----------------------|
|-2---------------------|
|-2---------------------|
|-0---------------------|

4.
|-----------------------------------------------------|
|-----------------------------------------------------|
|-----------------------------------------------------|
|-10-7-7-7-7-7-10-7-7-8-7-7-10-7-7-7-7-7-10-7-7-8-7-7-|
|-----------------------------------------------------|
|-----------------------------------------------------|
|                                                     |
|-----------------------------------------------------|
|-----------------------------------------------------|
|-2-------------------------2------------2------2-----|
|-2-------------------------2------------2------2-----|
|-0-------------------------0------------0------0-----|
|-----------------------------------------------------|


|-----------------------------------------------------|
|-----------------------------------------------------|
|-----------------------------------------------------|
|-----------------------------------------------------|
|-10-7-7-7-7-7-10-7-7-8-7-7-10-7-7-7-7-7-10-7-7-8-7-7-|
|-----------------------------------------------------|
|                                                     |
|-----------------------------------------------------|
|-----------------------------------------------------|
|-----------------------------------------------------|
|-2-------------------------2------------2------2-----|
|-2-------------------------2------------2------2-----|
|-0-------------------------0------------0------0-----|


4b (guitar 2).
|-------------------------------------|
|-------------------------------------|
|-------------------------------------|
|-2--------2--------2--------2--------|
|-2--------2--------2--------2--------|
|-0--0-0-0-0--0-0-0-0--0-0-0-0--0-0-0-|
|-------------------------------------|

|-------------------------------------|
|-------------------------------------|
|-------------------------------------|
|-2--------2--------2--------2--------|
|-2--------2--------2--------2--------|
|-0--0-0-0-0--0-0-0-0--0-0-0-0--0-0-0-|

5.
|-------------------------------|
|-------------------------------|
|-------------------------------|
|-------------------------------|
|-------------------------------|
|-0-000-000-000-000-000-000-000-|

6.
|-------------------------------|
|-------------------------------|
|-------------------------------|
|-------------------------------|
|---------------------------3-2-|
|-0-000-000-000-3-0-000-000-----|

7.(with 6 and 8).
|-----------------------------------------------------|
|-----------------------------------------------------|
|-----------------------------------------------------|
|-------9-10-9---9-10-9-7--7--------------------------|
|-7---7----------------------10--10-7--5-7--8p7p5h7p5-|
|-----------------------------------------------------|

8.
|-------------------------------|
|-------------------------------|
|---------------------------5-4-|
|---------------5---------------|
|---------------------------3-2-|
|-0-000-000-000-3-0-000-000-----|

9.
|---------------------------------|
|---------------------------------|
|---------------------------------|
|----------------------------10-9-|
|-7-777-777-777-10-7-777-777------|
|---------------------------------|

10.
|-----------7----------------8------|
|--------8----8-----------8----8----|
|-----11--------11-----11--------11-|
|---9----------------9--------------|
|-----------------------------------|
|-0----------------0----------------|

with 10:
|--------------------------------------|
|--------------------------------------|
|-9------------------------------------|
|----7--9---9-10-9-7-5--7-9-7----------|
|-----------------------------7-8-5-7--|
|--------------------------------------|

|------------------------------------|
|------------------------------------|
|-------------9------7---------------|
|---------------9-10----10-9-7-9-10--|
|-7-8-7-5-7~-------------------------|
|------------------------------------|

|----------------------------|
|----------------------------|
|----------------------------|
|-5-7-9----------------------|
|--------7-8-5-7--7-8-7-5-7--|
|----------------------------|

|-------------------------------------------------------|
|-------------------------------------------------------|
|-------------------------------------------------------|
|-----7-9-7h9\2------7-9-7h9\2--4-5-4-2-----------------|
|---7--------------7--------------------5-2--2-3-2-0-2~-|
|-7--------------7--------------------------------------|

|---------------------------------------------------------|
|---------------------------------------------------------|
|---------------------------------------------------------|
|-----7-9-7h9\2------7-9-7h9\2--4-5-4-2-------------------|
|---7--------------7--------------------5-2p0--0-2-3-2-0--|
|-7--------------7----------------------------------------|

11.
|--------------------------------------------|
|--------------------------------------------|
|--------------------------------------------|
|-2--------3--------2--------5-------3-------|
|-2--------3--------2--------5-------3-------|
|-0----0-0-1----1-1-0----0-0-3-3-3-3-1-1-1-1-|

|----------------------------------------------|
|----------------------------------------------|
|----------------------------------------------|
|-2--------3----3--3--2--------5-------3-------|
|-2--------3----3--3--2--------5-------3-------|
|-0----0-0-1----1--1--0----0-0-3-3-3-3-1-1-1-1-|

12.
|------------------------------------------------------|
|------------------------------------------------------|
|------------------------------------------------------|
|----------7-------------------------------------------|
|-7---9-10----10-9-7-9-10-6-7--7--------------5-5-5-6--|
|--------------------------------6--6-777-777----------|

13.(2 guitars)
|--------------------------------------------------------|
|--------------------------------------------------------|
|-4--5--555-7-5-2-4--444-5-4-2-4--444-5-4-2-2--(2)-2-----|
|-5--7--777-9-7-3-5--555-7-5-3-5--555-7-5-3-2--333-2-2-3-|
|----------------------------------------------------3-5-|
|--------------------------------------------------------|

Rhythm under solo:
|----------------------------------------------------------|
|----------------------------------------------------------|
|----------------------------5--------5--7--------7---7----|
|-7-------------5---------5--5--------5--7--------7---7----|
|-7-------------5---------5--3--------3--5--------5---5----|
|-5-------5--5--3---------3--------------------------------|
[ Tab from: http://www.guitartabs.cc/tabs/i/iced_earth/funeral_tab.html ]
Solo:
|--------------------------------------------------------------|
|----------------------------------------------15-------17~----|
|-------------------------------------16----16-------16--------|
|----------12----12-16----14-17-14-17----17-------17-----------|
|-15-12-15----14-------15--------------------------------------|
|--------------------------------------------------------------|

|-19----------------------------19-17h19p17p15-15h17p15p14-15b~---|
|----17----18----16----17----18-----------------------------------|
|-------16----16----16----16--------------------------------------|
|-----------------------------------------------------------------|
|-----------------------------------------------------------------|
|-----------------------------------------------------------------|


|---------------------------------------------------------|
|---------------------------------------------------------|
|-12-12h14p12-9--------------------------------7-9/12-9~--|
|---------------12-11-9-9------------------8-9------------|
|-------------------------12-10-9---7h9-10----------------|
|---------------------------------10----------------------|

|------------------------------------------------------------|
|------------------------------------------------------------|
|-12-12-12h14-9-----------------------------------9----------|
|---------------12-11-9--------------------8-9-12---12-12~---|
|-----------------------12-10-9-------9-10-------------------|
|-------------------------------10-12------------------------|

|----------------------------------------------------------------------|
|----------------------------------------------------------------------|
|----------------------------------------------------------------------|
|-14-14-12-------12~--121212-------------------------------------------|
|----------15-12-------------15-14----15~--151515-14-12----14~--10-12~-|
|----------------------------------15-------------------15-------------|

|----------------------------------------------------------------------|
|----------------------------------------------------------------------|
|----------------------------------------------------------------------|
|-14-14-12-------12~--121212-------------------------------------------|
|----------15-12-------------15-14----15~--151515-14-12----14~--10-12~-|
|----------------------------------15-------------------15-------------|

14. (under 15 and 16)
|---------------------------------------------------------------|
|---------------------------------------------------------------|
|---------------------------------------------------------------|
|-7---------------5---------------5-----------------------------|
|-7---------------5---------------5-----------------------------|
|-5-5-5-5-5-5-5-5-3-3-3-3-3-3-3-3-3-3-3-3-3-3-3-3-3-3-3-3-3-3-3-|

15.
|-------------------------------------------------------------------|
|---------------------------------------------------10-----8--------|
|-----------9-9-7-7---------7-7-5-5---------5-5-4-------------------|
|-7-7-10-10---------5-5-9-9---------5-5-7-7-------5---10-9---10-9-7-|
|-------------------------------------------------------------------|
|-------------------------------------------------------------------|

16. (2 guitars)
|---------------------------------------------------8------7--------|
|-----------8-8-7-7---------7-7-5-5---------5-5-3---10-----8--------|
|-5-5-9--9--9-9-7-7-4-4-7-7-7-7-5-5-4-4-5-5-5-5-4-4---9--7---9--7-5-|
|-7-7-10-10---------5-5-9-9---------5-5-7-7-------5---10-9---10-9-7-|
|-------------------------------------------------------------------|
|-------------------------------------------------------------------|

17.
|---------------------------------------------------------|
|---------------------------------------------------------|
|---------------------------------------------------------|
|---------------------------------------------------------|
|-5/7-----------5/7-----------5/7-----------5/7-----------|
|-3/5-555-5-5-5-3/5-555-5-5-5-3/5-555-5-5-5-3/5-555-5-5-5-|

18.
|--------------------------------|
|--------------------------------|
|--------------------------------|
|-7----7-9-7-5---5-8---8-10-8-7--|
|--------------------------------|
|--------------------------------|
|                                |
|--------------------------------|
|--------------------------------|
|--------------------------------|
|--------------------------------|
|-7----7-9-7-5---5-8---8-10-8-7--|
|-5----5-7-5-3---3-6---6-8--6-5--|

19. (2 guitars)
|------------------------------------------------------------|
|------------------------------------------------------------|
|------------------------------------------------------------|
|-3--3-333-3-5-3-2--2-222-2-2-2-7--7-777-7-8--7-6--666-6-6-6-|
|-5--5-555-5-7-5-3--3-333-3-3-3-8--8-888-8-10-8-7--777-7-7-7-|
|------------------------------------------------------------|

20. (2 guitars)
|------------------------------------------------------------------|
|------------------------------------------------------------------|
|-5-555-555-5-7-5-4-444-444-4-4-4-7-777-777-7-9--7-5-555-555-5-5-4-|
|-7-777-777-7-9-7-5-555-555-5-5-5-8-888-888-8-10-8-7-777-777-7-7-5-|
|------------------------------------------------------------------|
|------------------------------------------------------------------|

21. (2 guitars)
|------------------------------------------------------------|
|-------------------------------10-------1012-109------9-9-9-|
|-10-------1012109--------9-9-9------------------------------|
|------------------------------------------------------------|
|-5--5-555-5-7-5-3--3-333-3-3-3-8--8-888-8-10-8-7--777-7-7-7-|
|------------------------------------------------------------|

22.
|----------------------------------------------------------------|
|----------------------------------------------------------------|
|-9-----10-----9-----10--9-10-9-10-8-----9-----8-----9---8-9-8-9-|
|-7-----8------7-----8---7-8--7-8--6-----7-----6-----7---6-7-6-7-|
|---000----000---000---0-------------000---000---000---0---------|
|----------------------------------------------------------------|

23.
|----------------------------------------------------------------|
|-10----11-----10----11--1011-11---9-----10----9-----10--9-1010--|
|-9-----10-----9-----10--9-10-10---8-----9-----8-----9---8-9-9---|
|----------------------------------------------------------------|
|----------------------------------------------------------------|
|----------------------------------------------------------------|
|                                                                |
|----------------------------------------------------------------|
|----------------------------------------------------------------|
|-9-----10-----9-----10--9-10-9-10-8-----9-----8-----9---8-9-8-9-|
|-7-----8------7-----8---7-8--7-8--6-----7-----6-----7---6-7-6-7-|
|---000----000---000---0-------------000---000---000---0---------|
|----------------------------------------------------------------|

|----------------------------------------------------------------|
|-10----11-----10----11--1011-11---9-----10----9-----10----------|
|-9-----10-----9-----10--9-10-10---8-----9-----8-----9-----------|
|----------------------------------------------------------------|
|--------------------------------------------------------12121212|
|----------------------------------------------------------------|
|                                                        12s     |
|----------------------------------------------------------------|
|----------------------------------------------------------------|
|-9-----10-----9-----10--9-10-9-10-8-----9-----8-----9-----------|
|-7-----8------7-----8---7-8--7-8--6-----7-----6-----7-----------|
|---000----000---000---0-------------000---000---000---0-12121212|
|----------------------------------------------------------------|

24.
|-------------------------------------|
|------6--5--------------7--8---------|
|------5--4--------------6--7---------|
|-2-----------3--3--2-----------5--3--|
|-2-----------3--3--2-----------5--3--|
|-0-----------1--1--0-----------3--1--|

End with E5
Comments