Iced Earth - Disciples Of The Lie Chords & Tabs

 

Disciples Of The Lie Chords & Tabs

Iced Earth Chords & Tabs

Version: 1 Type: Tab 0 ratings
1 star 2 stars 3 stars 4 stars 5 stars
comments

Disciples Of The Lie Tab

   
Iced Earth:  Disciples of the Lie

transcribed by:  Russ Elton (vicelton@yahoo.com)

FIND EVERY ICED EARTH SONG AND
THE MOST UPDATED VERSION OF THIS SONG AT:

                          The Frozen Palace
                  http://truemetal.org/icedearth/

Date last modified:  01/01/02
  
PLEASE DO NOT COPY THIS TAB TO ANOTHER SITE 
WITHOUT AUTHORS' PERMISSION.  THANK YOU.

Tuning: Eb

Riff 1 
Guitar 1
eb|-------------------------------|
Bb|-------------------------------|
Gb|-------------------------------|
Db|-------------------------------|
Ab|-9-----------------------------|
Eb|-7-000-000-000-000-000-000-000-|
      *** *** *** *** *** *** ***
eb|-------------------------------|
Bb|-------------------------------|
Gb|-------------------------------|
Db|-------------------------------|
Ab|-8-----------------------------|
Eb|-6-000-000-000-000-000-000-000-|
      *** *** *** *** *** *** ***
eb|-------------------------------|
Bb|-------------------------------|
Gb|-------------------------------|
Db|-------------------------------|
Ab|-7-----------------------------|
Eb|-5-000-000-000-000-000-000-000-|
      *** *** *** *** *** *** ***
eb|-------------------------------|
Bb|-------------------------------|
Gb|-------------------------------|
Db|-------------------------------|
Ab|-6-----------------------------|
Eb|-4-000-000-000-000-000-000-000-|
      *** *** *** *** *** *** ***

Final time:
eb|---------------------------|
Bb|---------------------------|
Gb|---------------------------|
Db|---------------------------|
Ab|-6-------------------------|
Eb|-4-000-000-000-000-000-000-|
      *** *** *** *** *** ***


Guitar 2
eb|-------------------------------------|
Bb|-10~~------10~~------10~~------9~~---|
Gb|-11~~------10~~-------9~~------8~~---|
Db|-------------------------------------|
Ab|-------------------------------------|
Eb|-------------------------------------|

[ Tab from: http://www.guitartabs.cc/tabs/i/iced_earth/disciples_of_the_lie_tab.html ]
Riff 2                             x2
eb|---------------------------------|--------|
Bb|---------------------------------|--------|
Gb|---------------------------------|--------|
Db|---------------------------------|--------|
Ab|-5-7-8-7-------------------------|------2-|
Eb|---------000-000-000-000-000-000-|-//\\-0-|
    * * * * *** *** *** *** *** *** 


Riff 3
eb|----------------------------------|
Bb|----------------------------------|
Gb|----------------------------------|
Db|----------------------------------|
Ab|-2-2-5--2-2-5---------------------|
Eb|-0-0-3--0-0-3-000-3-2-1-000-3-2-1-|
    * *    * *   *** * *   *** * *


Riff 4
eb|-------------------------------|
Bb|-------------------------------|
Gb|-------------------------------|
Db|-------------------------------|
Ab|-------------------------2-2-5-|
Eb|-000-000-000-000-000-000-0-0-3-|
    *** *** *** *** *** *** * *   
   "You abuse......"
eb|-----------------------------|
Bb|-----------------------------|
Gb|-----------------------------|
Db|-----------------------------|
Ab|-----------------------------|
Eb|-000-000-000-3-2-1-000-3-2-1-|
    *** *** *** * *   *** * *


Play Riff 1   "I've gotta do as you say..."
Play Riff 2   "...disciples of the lie..."
Play Riff 3   
Play Riff 4   "Breeding fear..."
Play Riff 1   "I've gotta do as you say..."
Play Riff 2   "...disciples of the lie..."

Interlude

Riff 5
eb|-----------------------------------------------------|
Bb|-----------------------------------------------------|
Gb|-----------------------------------------------------|
Db|-----------------------------------------------------|
Ab|-9------------8------------7------------6------------|
Eb|-7-77777777..-6-66666666..-5-55555555..-4-44444444..-|
      ********     ********     ********     ********
   "The blackness inside..."

Play Riff 1   "I've gotta do as you say..."
Play Riff 2   "I want to see you die..."

Ending
eb|-----------------|
Bb|-----------------|
Gb|-----------------|
Db|-----------------|
Ab|-2-2-5--2-2-5--2-|
Eb|-0-0-3--0-0-3--0-|
    * *    * *    
   "Disciples of the lie!"


notation:
^   =  bend [ ^ = half, ^^ = whole, etc. ]
^r  =  bend and release
x   =  mute with fret-hand
*   =  mute with palm-hand
X\\ =  pick slide
h   =  hammer-on
p   =  pull-off
~   =  vibrato
t   =  tap-on
/   =  slide up
\   =  slide down
h.  =  harmonics
ah  =  artificial harmonic
(9) =  ghost note
tm  =  trem picking
tr  =  trill
Comments