Iced Earth - Depths Of Hell Chords & Tabs

 

Depths Of Hell Chords & Tabs

Iced Earth Chords & Tabs

Version: 1 Type: Tab 0 ratings
1 star 2 stars 3 stars 4 stars 5 stars
comments

Depths Of Hell Tab

   
Iced Earth:  Depths Of Hell

transcribed by:  Russ Elton (vicelton@yahoo.com)

FIND EVERY ICED EARTH SONG AND
THE MOST UPDATED VERSION OF THIS SONG AT:

                          The Frozen Palace
                  http://truemetal.org/icedearth/

Date last modified:  01/03/02
  
PLEASE DO NOT COPY THIS TAB TO ANOTHER SITE 
WITHOUT AUTHORS' PERMISSION.  THANK YOU.

Tuning: Eb

Riff 1
Guitar 1 (clean)
eb|---------------------------------|
Bb|---------------------------------|
Gb|---------------------------------|
Db|-2-2-2-4-4-4-5-5-5-5-5-5-5-5-5-5-|
Ab|---------------------------------|
Eb|---------------------------------|
    * * * * * * * * * * * * * * * *  
eb|---------------------------------|
Bb|---------------------------------|
Gb|-4-4-4-2-2-2---------------------|
Db|-------------5-5-5-5-5-5-5-5-5-5-|
Ab|---------------------------------|
Eb|---------------------------------|
    * * * * * * * * * * * * * * * * 

Guitar 2 (distortion)               
eb|-----------------------------|
Bb|-----------------------------|
Gb|-----------------------------|
Db|-----------------------------|
Ab|-----------------------------|
Eb|-0-0-0-0-0-0-0-0-0-0-0-0-...-|
    * * * * * * * * * * * * 


Riff 2
Guitar 1 (clean)                       x2
eb|-------------------------------------|
Bb|-------------------------------------|
Gb|-------------------------------------|
Db|-3-3-3-2-2-2-2-2-2-2-2-2-2-2-2-2-2-2-|
Ab|-------------------------------------|
Eb|-------------------------------------|
    * * * * * * * * * * * * * * * * * * 

Guitar 2 (distortion)                  x2
eb|-------------------------------------|
Bb|-------------------------------------|
Gb|-------------------------------------|
Db|-10-10-10--9-------------------------|
Ab|--8--8--8--7-------------------------|
Eb|-------------------------------------|


Play Riff 1   "Angels coming..."
Play Riff 2 
Play Riff 1   "Challengers call him..."
Play Riff 2


Riff 3                         x2
eb|-----------------------------|
Bb|-----------------------------|
Gb|-----------------------------|
Db|-----------------------------|
Ab|-2----2----2----2------------|
Eb|-0-00-0-00-0-00-0-00-0-0-0-0-|
      **   **   **   **           
   "Battles won..."  
eb|-----------------------------|
Bb|-----------------------------|
Gb|-----------------------------|
Db|-----------------------------|
Ab|-3----3----3----3----5---5---|
Eb|-1-11-1-11-1-11-1-11-3---3---|
      **   **   **   **      
   "Feel the pain..."
eb|-----------------------------|
Bb|-----------------------------|
Gb|-----------------------------|
Db|-----------------------------|
Ab|-2----2----2----2------------|
Eb|-0-00-0-00-0-00-0-00-0-0-0-0-|
      **   **   **   **           
eb|-------------------|
Bb|-------------------|
Gb|-------------------|
Db|-------------------|
Ab|--5--5--5--5-----3-|
Eb|--3--3--3--3--0--1-|
                 *
  "From the depths of hell..."

Riff 4                         x2
eb|-----------------------------|
Bb|-----------------------------|
Gb|-------------------------5-4-|
Db|-----------------------------|
Ab|-2-----2-----2-----2-----3-2-|
Eb|-0-0-0-0-0-0-0-0-0-0-0-0-----|
      * *   * *   * *   * * 
eb|--------------------------------------------------|
Bb|--------------------------------------------------|
Gb|--------------------------------------------------|
Db|--------------------------------------------------|
Ab|-5-5-5-5---3----5-5-5-5---2----5-5-5-5---3---5--3-|
Eb|-3-3-3-3-0-1----3-3-3-3-0-0----3-3-3-3-0-1---3--1-|
            *              *              *
  "From the depths of hell..."

[ Tab from: http://www.guitartabs.cc/tabs/i/iced_earth/depths_of_hell_tab.html ]
Riff 5 (Solo Rhythm)           x2
eb|-----------------------------|
Bb|-----------------------------|
Gb|-------------------------5-4-|
Db|-----------------------------|
Ab|-2-----2-----2-----2-----3-2-|
Eb|-0-0-0-0-0-0-0-0-0-0-0-0-----|
      * *   * *   * *   * *        
eb|-----------------------------|
Bb|-----------------------------|
Gb|-------------------------4-5-|
Db|-----------------------------|
Ab|-3-----3-----3-----3-----2-3-|
Eb|-1-1-1-1-1-1-1-1-1-1-1-1-----|
      * *   * *   * *   * * 
eb|-----------------------------|
Bb|-----------------------------|
Gb|-------------------------5-4-|
Db|-----------------------------|
Ab|-2-----2-----2-----2-----3-2-|
Eb|-0-0-0-0-0-0-0-0-0-0-0-0-----|
      * *   * *   * *   * *        
eb|--------------------------------------------------|
Bb|--------------------------------------------------|
Gb|--------------------------------------------------|
Db|--------------------------------------------------|
Ab|-5-5-5-5---3----5-5-5-5---2----5-5-5-5---3---5--3-|
Eb|-3-3-3-3-0-1----3-3-3-3-0-0----3-3-3-3-0-1---3--1-|
            *              *              *

Solo
eb|----------------------------------------------|
Bb|----------------------------------------------|
Gb|-9/10-10-10/12-12-12/14-14-14/16-16-16/17-16~-|
Db|----------------------------------------------|
Ab|----------------------------------------------|
Eb|----------------------------------------------|

eb|-----------------------------------------------|
Bb|-----------------------------------------------|
Gb|-16/17-17-17/19-19-19\17-17-17\16-16-16\14-14\-|
Db|-----------------------------------------------|
Ab|-----------------------------------------------|
Eb|-----------------------------------------------|

eb|-------------------------------------|
Bb|-------------------------------------|
Gb|-------------------------------------|
Db|-5-9-5--7b8r7~---/12-10-9---------10-|
Ab|--------------------------10-10~-----|
Eb|-------------------------------------|

eb|----------------------------|
Bb|----------------------------|
Gb|----------------------------|
Db|-9-(9)b10r9~~---------------|
Ab|---------------12-10--7--7~-|
Eb|----------------------------|

eb|-/19-20-22-20--17-19----------------------|
Bb|------------------------------------------|
Gb|------------------------14-16-17-16-14----|
Db|---------------------------------------17-|
Ab|------------------------------------------|
Eb|------------------------------------------|

eb|-15-17-19-17--14-15----19-24-19------|
Bb|--------------------------------17~~-|
Gb|-------------------------------------|
Db|-------------------------------------|
Ab|-------------------------------------|
Eb|-------------------------------------|

eb|-/19-20-22-20--17-19----------------------|
Bb|-----------------------(/-9b10r-9--8-8~~)-| Harmony guitar
Gb|------------------------/10b11r10--9-9~~--|
Db|------------------------------------------|
Ab|------------------------------------------|
Eb|------------------------------------------|

End Solo


Play Riff 1   "Darkness dwelling..."
Play Riff 2
Play Riff 1   "Shattered pieces..."
Play Riff 2
Play Riff 3   "When the smoke clears..."

Riff 4a                        x2
eb|-----------------------------|
Bb|-----------------------------|
Gb|-------------------------5-4-|
Db|-----------------------------|
Ab|-2-----2-----2-----2-----3-2-|
Eb|-0-0-0-0-0-0-0-0-0-0-0-0-----|
      * *   * *   * *   * * 
eb|-----------------------------------------------------|
Bb|-----------------------------------------------------|
Gb|-----------------------------------------------------|
Db|-----------------------------------------------------|
Ab|-5-5-5-5---3----5-5-5-5---2----5-5-5-5---3---5--3--2-|
Eb|-3-3-3-3-0-1----3-3-3-3-0-0----3-3-3-3-0-1---3--1--0-|
            *              *              *
  "From the depths of hell..."

notation:
^   =  bend [ ^ = half, ^^ = whole, etc. ]
^r  =  bend and release
x   =  mute with fret-hand
*   =  mute with palm-hand
X\\ =  pick slide
h   =  hammer-on
p   =  pull-off
~   =  vibrato
t   =  tap-on
/   =  slide up
\   =  slide down
h.  =  harmonics
ah  =  artificial harmonic
(9) =  ghost note
tm  =  trem picking
tr  =  trill
Comments