Iced Earth - 1 Chords & Tabs

 

1 Chords & Tabs

Iced Earth Chords & Tabs

Version: 1 Type: Bass Tab 0 ratings
1 star 2 stars 3 stars 4 stars 5 stars
comments

1 Bass Tab

Artist : ICED EARTH
Song   : 1776
Album  : Something Wicked This Way Come
Tabber : Többe

Tune down to Eb (1/2 step down), 
or tune down 1 step and move every note up 1/2 step...... hehe...

Intro
----------------------
----------------------
------7--------7------
----------------------

Riff 1
------------------------------------
------------------------------------
-------7--------7----10--9-10-7--5--
-0--000---0--000--------------------

Riff 2
-------------------------------------------------
-------------------------------------------------
-------7--------7----10--9-10-7--5--3--2---------
-0--000---0--000--------------------------3--2---
[ Tab from: http://www.guitartabs.cc/tabs/i/iced_earth/1_btab.html ]
Riff 3
------------------
------------------
------------------
-0-000-0-0-000---- listen on album for rythm

Riff 4
-----------------------------------------------------------------
-----------------------------------------------------------------
--------7--------7---------7--7--5--3--333--3--333--3--333--3-5--
-0--000----0--000---0--000---------------------------------------

Riff 5 (Probably wrong)
-------------------------------------------------------------------------
-------------------------------------------------------------------------
-7-----------7-5-------------5-3-----------3-2-------------2-0-------0-2-
-------------------------------------------------------------------------

I´m too lazy to type the song structure...

/metal_up_your_ass@2die4.com
Comments