Ice Cube - We Be Clubbin Chords & Tabs

 

We Be Clubbin Chords & Tabs

Ice Cube Chords & Tabs

Version: 2 Type: Bass Tab 0 ratings
1 star 2 stars 3 stars 4 stars 5 stars
comments

We Be Clubbin Bass Tab

-----------------------------
We Be Clubbin'(Remix) w/ DMX
-----------------------------
By Ice Cube
From Players Club soundtrack ???
Tab by Matt Clark, Matt.Clark@umit.maine.edu


Bass
Intro and part of verses with no guitar
|---------------------------------------------------------------------|
|--------------3--------------------------------3-----------3--3------|
|1---1---1---1---1---1---1--------1---1---1---1---1---1---1-----------|
|----------------------------1----------------------------------------|

|---------------------------------------------------------------------|
|--------------3--------------------------------3---------------------|
|1---1---1---1---1---1---1--------1---1---1---1---1-------------------|
|----------------------------1----------------------------------------|


[ Tab from: http://www.guitartabs.cc/tabs/i/ice_cube/we_be_clubbin_btab_ver_2.html ]
Guitar w/ distortion                                Let last chord ring           
|---------------------------------------------------------------------|
|---------------------------------------------------------------------|
|---------------------------------------------------------------------|
|8-------8---6---8--------8---6---8--------8---3---4------------------|
|8-------8---6---8--------8---6---8--------8---3---4------------------|
|6-------6---4---6--------6---4---6--------6---1---2------------------|



Bass when guitar plays
|---------------------------------------------------------------------|
|---------------------------------------------------------------------|
|---------------------------------------------------------------------|
|6-------6---4---6--------6---4---6--------6---1---2------------------|



Guitar - played quietly in some parts of the song (palm muted)
|---------------------------------------------------------------------|
|---------------------------------------------------------------------|
|---------------------------------------------------------------------|
|---------------------------------------------------------------------|
|1-1-1-1-1-1-1-1-1-1-1-1-1-1-1-1-1-1-1-1-1-1-1-1-1-1-1-1-1-1-1-1-1-1-1|
|---------------------------------------------------------------------|

Comments