Icarus Fall - Not The End Chords & Tabs

 

Not The End Chords & Tabs

Icarus Fall Chords & Tabs

Version: 1 Type: Tab 0 ratings
1 star 2 stars 3 stars 4 stars 5 stars
comments

Not The End Tab

   
-=========================-
 Icarus Fall - Not The End
-=========================-

Artist		-	Icarus Fall
Song		-	Not The End
Tabbed By	-	Clayton Botha
e-Mail		-	theno69@hotmail.com
Tuning		-	Standard
Notes		-	This is a very deep meaningful song, listen to the lyrics 
			And you'll see what i mean! go to www.IcarusFall.co.za you 
			Can get there demo CD, which is out now, Enjoy the song!

 -=Verse=-
e||-------------------------------------------|---------------------------------||
B||------11------11------11------11-----------|-----8-----8-----8-----8---------||
G||---10------10------10----10------10---10---|---7-----7-----7---7-----7---7---||
D||-8-------8-------8----------8-------8----8-|-5-----5-----5-------5-----5---5-||
A||-------------------------------------------|---------------------------------||
E||-------------------------------------------|---------------------------------||

e||-------------------------------------------|---------------------------------||
B||------11------10------11------10-----------|-----8-----8-----8-----8---------||
G||---10------10------10----10------10---10---|---7-----7-----7---7-----7---7---||
D||-8-------8-------8----------8-------8----8-|-5-----5-----5-------5-----5---5-||
A||-------------------------------------------|---------------------------------||
E||-------------------------------------------|---------------------------------||

e||-----------------|------------------||
B||-----------------|---------4p3------||
G||-----------------|-----5-------5~-x-||: Loop Everything
D||-----3---3---3---|---5---5----------||: For The Verses!
A||---3---3---3---3-|-3----------------||
E||-1---------------|------------------||

 -=Chorus=-
e||---------------------------------||
B||---------------------------------||
G||---------8-8-8-8-7-7-7-7-5-5-5-5-||
D||-5-5-5-5-8-8-8-8-5-5-5-5-3-3-3-3-||
A||-5-5-5-5-6-6-6-6-5-5-5-5-3-3-3-3-||
E||-3-3-3-3---------3-3-3-3-1-1-1-1-||

 -=Interlude=-
e||------------------------------------8--------------------6---------||
B||------8---/-10---11----11------10-----10-------------6-----6-------||
G||----7---7------7-----7-------7----7------7---7-----8---8-----8---8-||
D||-5------------------------7----------------7----8--------------8---||
A||-------------------------------------------------------------------||
E||-------------------------------------------------------------------||
[ Tab from: http://www.guitartabs.cc/tabs/i/icarus_fall/not_the_end_tab.html ]
e||-------------------------------------8-----------------------------||
B||------8---/-10---11----11-------10-----10--------------------------||
G||----7---7------7-----7-------7-----7------7---7--8-8-8-8-8-8-8-8-8-||
D||-5------------------------7-----------------7----8-8-8-8-8-8-8-8-8-||
A||-------------------------------------------------6-6-6-6-6-6-6-6-6-||
E||-------------------------------------------------------------------||

 -=Chorus=-
e||---------------------------------||
B||---------------------------------||
G||---------8-8-8-8-7-7-7-7-5-5-5-5-||
D||-5-5-5-5-8-8-8-8-5-5-5-5-3-3-3-3-||
A||-5-5-5-5-6-6-6-6-5-5-5-5-3-3-3-3-||
E||-3-3-3-3---------3-3-3-3-1-1-1-1-||

End On |-x-x-5-3-3-1|: Just Let It Ring!

 -=Lyrics=-

 -=Verse-1=-
   I dream of oceans
   I drift away
   More or less myself
   This is the place

   That I ran

   That I can’t return to
   Where all has changed
   That I look back on
   That stays the same

   But I ran, I ran

 -=Chorus=-
   This is how we pick up the pieces,
   Pick them up and make us good again
   This is how we make a living
   This is, this is, this is not the end

 -=Vesre-2=-
   Hands as projectiles
   They teach nothing
   But the bruising, and the longing
   They teach restraint, well I guess that’s something

   And I ran, I ran

 	-=Chorus=-
   	  This is how we pick up the pieces,
   	  Pick them up and make them fit again
   	  This is how we make a living
   	  This is, this is, this is not the end

	  This is how we break the cycle
   	  Break it up and make us good again
          This is how we make a living,
   	  This is, this is, this is not the end

 -=Interlude=-
   Why is there
   Always more than here?

 	-=Chorus=-
   	  This is how we pick up the pieces,
   	  Pick them up and make us good again
   	  This is how we make a living
   	  This is not the end

   	  This is how we break the cycle
   	  Break it up and make us good again
   	  This is not our song it's a calling
   	  This is not the end
	  This is not the end
	  This is not the end
	  This is not the end
	  And I ran, I ran

-====================================================================-
 Thanks for viewing my tab! Any questions, comments or death treats??
 I'm open to all corrections so please e-mail me: theno69@hotmail.com
-====================================================================-
Comments