Iaxe - Akoy Sa Iyo Ikay Akin Chords & Tabs

 

Akoy Sa Iyo Ikay Akin Chords & Tabs

Iaxe Chords & Tabs

Version: 4 Type: Tab 0 ratings
1 star 2 stars 3 stars 4 stars 5 stars
comments

Akoy Sa Iyo Ikay Akin Tab

   
     ***************************************** 
    ******************************************* 
   * Title:Ako'y Sayo Ikay Akin                * 
  ** Artist: IAXE                              ** 
 *** Tabber: Angelo Dacanay  Date:May 15,2004  *** 
  ** Tuning: Standard Tuning [E,B,G,D,A,E]     ** 
   * This is 98% Correct                       * 
    ******************************************* 
     ***************************************** 

Chords Used:
A   x02220 or 577655
Fm  244222
Bm  x24430
E   022100
D   xx0232 or x57775
Dm  xx0231 or x57765   
A7  x02020
C#m  x46654

Legend:
h - hammer
s - slide


Intro:
       A    Bm C#m	 D     Dm          A   Bm  C#m	     D     Dm 

E|-----------------------2------1----------------------------2------1-|
B|-------2--3--5--------3-3------------------2--3--5--------3-3-------|
G|-----2--------------2-----0h2-2----------2--------------2-----0h2-2-|
D|---2--------------0--------------------2--------------0-------------|
A|-0--------2--4-----------------------0--------2--4------------------|
E|--------------------------------------------------------------------|


Verse1:

A		 Fm
  Ikaw na ang may sabi

Bm	     E
  Na ako'y mahal mo rin

A	      Fm
 Nang sinabi mo

Bm		     E
 Ang pagibig mo'y di magbabago

Chorus1:

	D
 Ngunit Bakit

    Dm
 Sa twing ako'y lumalapit

      A		A7
 Ikay Lumalayo

 D	      Dm
 Puso'y Laging nasasaktan

	 A                Fm
 Pag may kasama kang iba

 



   Bm            C#m Dm
 Di ba nila alam

   Bm		 C#m Dm
 Tayo'y nagsumpaan

            Bm
 Na ako'y sayo at ika'y


 akin lamang......

Filler:

       A    Bm C#m	 D     Dm          A   Bm  C#m	     D     Dm 

E|-----------------------2------1----------------------------2------1-|
B|-------2--3--5--------3-3------------------2--3--5--------3-3-------|
G|-----2--------------2-----0h2-2----------2--------------2-----0h2-2-|
D|---2--------------0--------------------2--------------0-------------|
A|-0--------2--4-----------------------0--------2--4------------------|
E|--------------------------------------------------------------------|


Verse2:

A		 Fm
  Kahit anong mangyari

Bm	            E
  Pag-ibig ko'y sayo pa rin

A	    Fm
 Kahit ano pa

Bm		     E
 Ang sabihin nila'y ikaw pa rin



Chorus2:

	 D
 Ang mahal..

     Dm              A       A7
 Maghihintay ako kahit kailan
 
	 D
 Kahit na
 
   Dm			   A      Fm
 Umabot pang ako ay nasa langit na

	 Bm          C#m Dm
 At kung di ka makita

	Bm	       C#m Dm
 Makikiusap kay Bathala
		
	   (Strum 2x)   (Strum 2x)
	       Bm          Bm
 Na ika'y hanapin at sabihin



		A
 Ipaalala sa iyo
[ Tab from: http://www.guitartabs.cc/tabs/i/iaxe/akoy_sa_iyo_ikay_akin_tab_ver_4.html ]
        Fm	     Bm   C#m Dm
 Ang nakalimutang sumpaan
 
	      Bm                
 Na ako'y sayo at ika'y akin lamang

Adlib: A, Fm, Bm, E
       A, Fm, Bm, E

|-------------0---------------------------------|
B|---------------2-------------------------------|
G|---------2-4---------4--21x-1h2--1------------|
D|-----2-4----------------------------4--2-4-----|
A|-0-2-------------------------------------------|
E|-----------------------------------------------|
              Bm7+ 
e|------------------------------------------------|
B|-----------------------------------------5------|
G|--------------------------2---------4/6---------|
D|-2--------------------0-2---4b------6/7---------|
A|---5-4-2----0-2-4-5-----------------------------|
E|------------------------------------------------|
   E                         A  
e|-------------------------5h7--x-5-----------|
B|-------------------------5----x-5-----------|
G|-2h1-------2h1-----------6----x-6-----------|
D|-2---2-----2---2---------7----x-7-----------|
A|--------------------------------------------|
E|--------------------------------------------|
                   F#m
e|--------------------------------------|
B|--------------------------------------|
G|-----6--4-----2-2v-----2-------------|
D|-----7--6-----4-4v-----4-------------|
A|--5-----------------------------------|
E|--------------------------------------|
   Bm7                                  E 
e|-12--10-9----9-----------------------------9-----------------------|
B|-10-------12---12-10-9-----------------------12-10-9---------------|
G|-11------------------11b-----11-9-----11b------------11-11b---11-9-|
D|-------------------------------------------------------------------|
A|-------------------------------------------------------------------|
E|-------------------------------------------------------------------|



Chorus3:

	 D
 Umasa kang

     Dm              A       A7
 Maghihintay ako kahit kailan
 
	 D
 Kahit na
 
   Dm			   A      Fm
 Umabot pang ako ay nasa langit na

	 Bm          C#m Dm
 At kung di ka makita

	Bm	       C#m Dm
 Makikiusap kay Bathala
		

	   (Strum 2x)    (Strum 2x)  
	       Bm          Bm
 Na ika'y hanapin at sabihin



		A
 Ipaalala sa iyo

        Fm	     Bm   C#m Dm
 Ang nakalimutang sumpaan
 
	      Bm                
 Na ako'y sayo at ika'y akin lamang



Outro: (Filler)

       A    Bm C#m	 D     Dm          A   Bm  C#m	     D     Dm 

E|-----------------------2------1----------------------------2------1-|
B|-------2--3--5--------3-3------------------2--3--5--------3-3-------|
G|-----2--------------2-----0h2-2----------2--------------2-----0h2-2-|
D|---2--------------0--------------------2--------------0-------------|
A|-0--------2--4-----------------------0--------2--4------------------|
E|--------------------------------------------------------------------|




---][GeLo][---
addme @ Friendster, Berkzter, & Myspace.
Sory di ko pa po nagagawa ung bass @ lead ng Adlib.....
i'm very sure of this......sabay nyo pa sa mismong kanta.

gelo15_23@yahoo.com
Comments