Iaxe - Akoy Sa Iyo Ikay Akin Chords & Tabs

 

Akoy Sa Iyo Ikay Akin Chords & Tabs

Iaxe Chords & Tabs

Version: 1 Type: Tab 0 ratings
1 star 2 stars 3 stars 4 stars 5 stars
comments

Akoy Sa Iyo Ikay Akin Tab

tingnan nyo sa tape na" tunog acoustic"
ako'y sa iyo, ika'y akin
iaxe
tabbed by:mark lavalle
www.mark_des22@yahoo.com


intro:
|-----------------------5-----0--1-|
|-2-----2--3---5------3---3------3-|
|-----1-------------3-------3----2-| 2x
|---2-------------0----------------|
|-0--------2---4-------------------|
|----------------------------------|

verses:
|------|-2222-|-----2222-|------|
|-2222-|-2222-|-2s3-3333-|------|
|-2222-|-2222-|-----4444-|-1111-| 2x
|-2222-|-4444-|-----4444-|-2222-|
|------|-4444-|-----2222-|-2222-|
|------|-2222-|-----2222-|------|

chorus:
|-2222-|-2222-|------|------|
|-3333-|-2222-|-2222-|-2222-|
|-4444-|-2222-|-2222-|-1111-| 2x
|-4444-|-4444-|-2222-|-2222-|
|-2222-|-4444-|------|------|
|-2222-|-2222-|------|------|

|-2222-|-4---5-|      |-1------2-|
|-3333-|-5---6-|      |-3------3-|
|-4444-|-6---7-| 2x   |-2------2-|
|-4444-|-6---7-|      |----------|
|-2222-|-4---5-|      |----------|
|-2222-|-4---5-|      |----------|

bridge:
hanapin..       sabihin..
|-2--2-|       |-2--2-|
|-3--3-|       |-2--2-|
|-4--4-|       |-2--2-|
|-4--4-|       |-4--4-|
|-2--2-|       |-4--4-|
|-2--2-|       |-2--2-|
[ Tab from: http://www.guitartabs.cc/tabs/i/iaxe/akoy_sa_iyo_ikay_akin_tab.html ]
|------|------|-2222-|-2222-|-4---5-|-1----2-|
|-2222-|-2222-|-3333-|-2222-|-5---6-|-3----3-|
|-2222-|-1111-|-4444-|-2222-|-6---7-|-2----2-|
|-2222-|-2222-|-4444-|-4444-|-6---7-|--------|
|------|------|-2222-|-4444-|-4---5-|--------|
|------|------|-2222-|-2242-|-4---5-|--------|

orders:
intro
verse I 
chorus I
intro
verse II
chorus II(except last part of the C.P)
bride
solo(do verse C.P)
chorus III(except last part of C.P)
bridge
intro

end w/ this
|---|
|-2-|
|-1-|
|-2-|
|---|
|---|


lyrics:

verse I:
ikaw na ang nagsabi
na ako'y mahal mo rin
at ang sinabi mo
ang pag-ibig mo'y di magbabago

chorus I:
ngunit bakit sa tuwing ako'y lumalapit
ika'y lumalayo
puso'y laging nasasaktan pag may kasama
kang iba
di ba nila alam
tayo'y nagsumpaan
na ako'y sayo, at ika'y akin lamang

verse II:
kahit anong mangyari
pag-ibig ko'y sayo parin
kahit ano pa
ang sabihin nila'y
ikaw parin

chorus II:
ang mahal
maghihintay ako
kahit kailan
kahit na
umabot pang ako'y
nasa langit na
at kung di ka makita
makikiusap kay bathala

bridge:
hanapin, at sabihin
ipaalala sa iyo
ang nakalimutang sumpaan
na ako'y sayo, at ika'y akin lamang

chorus III:
umasa ka
maghihintay ako
kahit kailan
kahit na
umabot pang ako'y 
nasa langit na
at kung di ka makita
makikiusap kay bathala

strumming pattern not shown.
listen to the song.
Comments