Ian Hunter - Who Do You Love Chords & Tabs

 

Who Do You Love Chords & Tabs

Ian Hunter Chords & Tabs

Version: 1 Type: Bass Tab 0 ratings
1 star 2 stars 3 stars 4 stars 5 stars
comments

Who Do You Love Bass Tab

----------------------------------------------------------------------------
                       Ian Hunter - Who Do You Love (Ian Hunter)
----------------------------------------------------------------------------
Album: Ian Hunter
Track nr.2
released 1975.
Tabbed by: Me, SkogensElg
Email: malibubeachnightmare@hotmail.com


Intro:
G|----------------------------------------------------|
D|----------------------------------------------------|
E|----------------------------------------------------|
E|-3-3-3-3-3-3-3-3-3-3-3-3-3-3-3-3-3-3-3-3-3-3-3-3-3--|
Goes faster as you're coming to the verse.

Verse:
G|----------------------------------------------------|
D|----------------------------------------------------|
A|----------------3-4-5-----------------3-4-5---------|
E|-3-3-3-3-3-3-3-3------3-3-3-3-3-3-3-3---------------|etc.

[ Tab from: http://www.guitartabs.cc/tabs/i/ian_hunter/who_do_you_love_btab.html ]
I'm extremely sorry, but I don't know the part between these... 
But I think it goes around G,A and F.


G|----------------------------------------------------|
D|----------------------------------------------------|
A|----------------------------------------------------|
E|-1-3-5-7-5-3-1-3-5-7-5-3-1-3-5-7--------------------|


G|----------------------------------------------------|
D|----------------------------------------------------|
A|----------------3-4-5-----------------3-4-5---------|
E|-3-3-3-3-3-3-3-3------3-3-3-3-3-3-3-3---------------|


"quiet" part round 2:09 & at the end:
|----------------------------------------------------|
|----------------------------------------------------|
|----------------------------------------------------|
|-3-3-3-3-3-3-3-3-3-3-3-3-3-3-3-3-3-3----------------|
Yes, Basically the same as the Intro.


That's all I figured out, take it or leave it :-)

More Ian Hunter Tabs!
Comments