Iam Frog - Do You Want A Serious Song Chords & Tabs

 

Do You Want A Serious Song Chords & Tabs

Iam Frog Chords & Tabs

Version: 1 Type: Tab 0 ratings
1 star 2 stars 3 stars 4 stars 5 stars
comments

Do You Want A Serious Song Tab

   
	

 ---------------------------------------------------------------------
                       Do You Want A Serious Song? - I Am Frog
 ---------------------------------------------------------------------
 This is our very first song. The strumming isn't here but when we release our album listen to it then becuase
 this is a good song.

 Written and tabbed by Matt Posaner.

 iNTRO
 e ---------
 B ---------
 G -7-7-4-2-
 D -7-7-4-2-
 A -5-4-2-0-
 E ---------
[ Tab from: http://www.guitartabs.cc/tabs/i/iam_frog/do_you_want_a_serious_song_tab.html ]
 vERSE
 e ---------------
 B ---------------
 G -7-7-4-2-------
 D -7-7-4-2-7-5-7-
 A -5-4-2-0-7-5-7-
 E ---------5-3-5-

 cHORUS
 e -----
 B -----
 G -----
 D -5-7-
 A -5-7-
 E -3-5-

 oUTRO cHORD
 e ---
 B ---
 G -7-
 D -7-
 A -5-
 E ---

 sONG oRDER
 
 iNTRO
 vERSE
 iNTRO
 vERSE
 cHORUS
 iNTRO
 vERSE
 cHORUS
 iNTRO
 oUTRO cHORD

 Have fun. If you want information or to comment or question this song and any others, 
 email us at: iam_frog@hotmail.com
Comments