I Mother Earth - Like The Sun Chords & Tabs

 

Like The Sun Chords & Tabs

I Mother Earth Chords & Tabs

Version: 3 Type: Tab 0 ratings
1 star 2 stars 3 stars 4 stars 5 stars
comments

Like The Sun Tab

Play with lots of distortion. Pay close attention to timing.
[ Tab from: http://www.guitartabs.cc/tabs/i/i_mother_earth/like_the_sun_tab_ver_3.html ]
E------------------------------------|---------------------------------
b------------------------------------|---------------------------------
g------------------------------------|---------------------------------
d------------9--------11----11h12----|--------9--------11----11--h12---
a---8b(9)--------9-------------------|---9--------9--------------------
e------------------------------------|---------------------------------

E------------------------------------|
b------------------------------------|
g------------------------------------|
d---------9---------11----12r--------|
a---10--------10---------------------|
e------------------------------------|

This is my first one, but i still think it's rite this way.
dont email me because i dont care what you have to say, Enjoy it!!!
Comments