I Killed The Prom Queen - Death Certificate For A Beauty Queen Chords & Tabs

 

Death Certificate For A Beauty Queen Chords & Tabs

I Killed The Prom Queen Chords & Tabs

Version: 1 Type: Tab

Death Certificate For A Beauty Queen Tab

   
Drop C-

||-----------------------------------------------------------------------------|
||-----------------------------------------------------------------------------|
||-----------------1010108-8-8-8-8---------------------------------------------|
||-----------------x-x-x-x-x-x-x-x---------------------------------------------|
||-8-8-8-8-8-8-0-0-8-8-8-6-6-6-6-6---------------------------------------------|
||-8-8-8-8-8-8-0-0-------------------------------------------------------------|

||-----------------------------------------------------------------------------|
||-----------------------------------------------------------------------------|
||-----------------------------------------------------------------------------|
||-----------------------------------------------------------------------------|
||-8-8-8-8-8-8-8-8-8-8-8-8-8-8-8-8-8-8-8-8-------------------------------------|
||-8-8-8-8-8-8-8-8-8-8-8-8-8-8-8-8-8-8-8-8-------------------------------------|
   . . . . . . . . . . . . . . . .
||-----------------------------------------------------------------------------|
||-----------------------------------------------------------------------------|
||-----------------------------------------------------------------------------|
||------8888-7777-----8888-7777-55-77-55---------------------------------------|
||-0--------------5555-------------------55------------------------------------|
||-0---------------------------------------------------------------------------|

||-----------------------------------------------------------------------------|
||-----------------------------------------------------------------------------|
||------8888-7777------7777-55-77-55-------------------------------------------|
||----------------5555---------------55----------------------------------------|
||-0---------------------------------------------------------------------------|
||-0---------------------------------------------------------------------------|

||-----------------------------------------------------------------------------|
||-----------------------------------------------------------------------------|
||-----------------------------------------------------------------------------|
||------8888-7777------7777-55-77-55-------------------------------------------|
||-0--------------5555---------------55----------------------------------------|
||-0---------------------------------------------------------------------------|

||-----------------------------------------------------------------------------|
||-----------------------------------------------------------------------------|
||-777777-888888-101010101010-121212121212-------------------------------------|
||-----------------------------------------------------------------------------|
||-----------------------------------------------------------------------------|
||-----------------------------------------------------------------------------|
[ Tab from: http://www.guitartabs.cc/tabs/i/i_killed_the_prom_queen/death_certificate_for_a_beauty_queen_tab.html ]
||-----------------------------------------------------------------------------|
||-----------------------------------------------------------------------------|
||-----------------------------------------------------------------------------|
||------8888-7777------7777-55-77-55-------------------------------------------|
||-0--------------5555---------------55----------------------------------------|
||-0---------------------------------------------------------------------------|

||-----------------------------------------------------------------------------|
||-----------------------------------------------------------------------------|
||------8888-7777------88-77-5555-77-88-77-55----------------------------------|
||----------------5555---------------------------------------------------------|
||-0---------------------------------------------------------------------------|
||-0---------------------------------------------------------------------------|

||-----------------------------------------------------------------------------|
||-----------------------------------------------------------------------------|
||-----------------------------------------------------------------------------|
||------8888-7777------7777-55-77-55-------------------------------------------|
||-0--------------5555---------------55----------------------------------------|
||-0---------------------------------------------------------------------------|

||-----------------------------------------------------------------------------|
||-----------------------------------------------------------------------------|
||-777777-888888-101010101010-121212121212-------------------------------------|
||-----------------------------------------------------------------------------|
||-----------------------------------------------------------------------------|
||-----------------------------------------------------------------------------|

||-----------------------------------------------------------------------------|
||-------------------------------10p6------------------------------------------|
||-----------10p7------10-7-10-7------7h10-----------10p7----------------------|
||-12-8-12-8------8h12---------------------12-8-12-8------8h12-----------------|
||-------------------------------------------------------------0----0000-0-0---|
||-------------------------------------------------------------0----0000-0-0---|
    . . .  .            . . .  .            . . .  .           .    .... . .
||-----------------------------------------------------------------------------|
||-----------------------------------------------------------------------------|
||-----------------------------------------------------------------------------|
||-----------------------------------------------------------------------------|
||-111-111--1--1--111-111--1--1--111-111--1--1--111-111--1--1------------------|
||-111-111--1--1--111-111--1--1--111-111--1--1--111-111--1--1------------------|
   ... ...  .  .  ... ...  .  .  ... ...  .  .  ... ...  .  .
||-----------------------------------------------------------------------------|
||-----------------------------------------------------------------------------|
||-----------------------------------------------------------------------------|
||-----------------------------------------------------------------------------|
||-000-000--0--0--000-000--0--0--000-000--0--0--000-000--0--0------------------|
||-000-000--0--0--000-000--0--0--000-000--0--0--000-000--0--0------------------|
   ... ...  .  .  ... ...  .  .  ... ...  .  .  ... ...  .  .