I Can Make A Mess Like Nobodys Business - Timshel Chords & Tabs

 

Timshel Chords & Tabs

I Can Make A Mess Like Nobodys Business Chords & Tabs

Version: 1 Type: Tab 0 ratings
1 star 2 stars 3 stars 4 stars 5 stars
comments

Timshel Tab

   
-------------------------------------------------------------------------------
			     Timshel - I Can Make A Mess Like Nobody's Business
-------------------------------------------------------------------------------
http://icanmakeamess.com

Tabbed by: Tim
Email: imnotspecial327@hotmail.com

Tuning: down a half-step

Intro/Verse

eb|-------3-----------3-----------3-----------3-------------------------------|
Bb|---3-------3---3-------3---3-------3---3-------3---------------------------|
Gb|-----0---0-------0---0-------0---0-------0---0-----------------------------|
Db|---------------------------------------------------------------------------|
Ab|-------------------------------------2-------------------------------------|
Eb|-3-----------2-----------0------------------------------------------------|

eb|-------3-----------3-----------3-----------3-------------------------------|
Bb|---3-------3---3-------3---3-------3---3-------3---------------------------|
Gb|-----0---0-------0---0-------0---0-------0---0-----------------------------|
Db|---------------------------------------------------------------------------|
Ab|-3-----------3-----------3-----------3-------------------------------------|
Eb|--------------------------------------------------------------------------|

Bridge
[ Tab from: http://www.guitartabs.cc/tabs/i/i_can_make_a_mess_like_nobodys_business/timshel_tab.html ]
eb|-------3-----------3-----------3-----------3-------------------------------|
Bb|---3-------3---3-------3---3-------3---3-------3---------------------------|
Gb|-----0---0-------0---0-------0---0-------0---0-----------------------------|
Db|---------------------------------------------------------------------------|
Ab|-0-----------0-----------0-----------0-------------------------------------|
Eb|--------------------------------------------------------------------------|

eb|-------3-----------3-------------------------------------------------------|
Bb|---3-------3---3-------3---------------------------------------------------|
Gb|-----0---0-------0---0-----------------------------------------------------|
Db|---------------------------------------------------------------------------|
Ab|-3-----------3-----------3--let ring---------------------------------------|
Eb|---------------------------------------------------------------------------|

Chorus

eb|-3--3--3--3----------------------------------------------------------------|
Bb|-3--3--3--3----------------------------------------------------------------|
Gb|-0--0--0--2----------------------------------------------------------------|
Db|-0--x--x--0----------------------------------------------------------------|
Ab|-x--2--3-------------------------------------------------------------------|
Eb|-3--0----------------------------------------------------------------------|

Final Chorus

eb|-3--3--3--3--3--3--3-------------------------------------------------------|
Bb|-3--3--3--3--3--3--3-------------------------------------------------------|
Gb|-0--0--0--2--0--2--0-------------------------------------------------------|
Db|-0--x--x--0--x--0--0-------------------------------------------------------|
Ab|-x--2--3-----3-----x-------------------------------------------------------|
Eb|-3--0--------------3-------------------------------------------------------|

Intro(x2) 
Verse(x4)
Bridge(x1)
Verse(x4)
Bridge(x1)
Chorus(x4)
Verse(x4)
Bridge(x1) 
Chorus(x3)
Final Chorus

| /  slide up
| \  slide down
| h  hammer-on
| p  pull-off
| ~  vibrato
| +  harmonic
| x  Mute note
===============================================================================
Comments