I Am X - Missile Chords & Tabs

 

Missile Chords & Tabs

I Am X Chords & Tabs

Version: 1 Type: Tab 0 ratings
1 star 2 stars 3 stars 4 stars 5 stars
comments

Missile Tab

   
-------------------------------------------------------------------------------
			     Missile - I Am X
-------------------------------------------------------------------------------
Tabbed by: mayonaize
Tuning: E A D G B E

Sneaker Pimp's front man Chris Corner's side project 'I Am X'.
See official site (www.iamx.co.uk) or fan site (www.sneakerpimps.be) for details.


I AM X
Missile


Riff #1
   G                       B
e--10-10-10-10-10-10-10-10-11-11-11-11-11-11-11-11-|
b--------------------------------------------------|
g--------------------------------------------------|
d--------------------------------------------------|
a--------------------------------------------------|
E--------------------------------------------------|

   Em                      C
e--12-12-12-12-12-12-12-12-------------------------|
b--------------------------13-13-13-13-13-13-13-13-|
g--------------------------------------------------|
d--------------------------------------------------|
a--------------------------------------------------|
E--------------------------------------------------|

Riff#2
   G                       B7
e-----19--19--19--15-15----------------------------|
b-----------------------15-15-15-13--12---13-------|
g--0-----------------------------------------------|
d--------------------------------------------------|
a--------------------------------------------------|
E--------------------------------------------------|

   C                       Cm
e--15------------------22--------------------------|
b--------------------------16--15--16--15----------|
g------------------------------------------12------|
d--------------------------------------------------|
a--------------------------------------------------|
E--------------------------------------------------|

G                   B        Em                          C
 So you came like a missile, falling on my head with the black sky
G                               B7              C               Cm
 Think you're giving but you're taking my life away
G                        B              Em                         C  <- with Riff #1
 Then you came with your breeze blocks, smashing up my face like a bus stop
G                               B7              C               Cm
 Think you're giving but you're taking my life away
[ Tab from: http://www.guitartabs.cc/tabs/i/i_am_x/missile_tab.html ]
	         G5                      B5
	Like the drunk you convinced was sober
	        (Ahhhhhh,                ahhhhhh)
	    Em              C
	You keep me falling over
	   (Ahhhhhh,        ahhhhhh, in the..)
	   G                                 B7              C           Cm  <- with Riff #2
	      Think you're giving but you're taking my life away
	(..daylight)

   G                       B
e---------------------7----14----------------------|
b----------8----10----------------12--------12-----|
g--0-----------------------------------14----------|
d--------------------------------------------------|
a--------------------------------------------------|
E--------------------------------------------------|

   Em                      C
e--------------------------15-----14------------7--|
b--8-------8----7-----8----------------7----8------|
g--------------------------------------------------|
d--------------------------------------------------|
a--------------------------------------------------|
E--------------------------------------------------|

   G                       B7
e-----19--19--19--15-15----------------------------|
b-----------------------15-15-15-13--12---13-------|
g--0-----------------------------------------------|
d--------------------------------------------------|
a--------------------------------------------------|
E--------------------------------------------------|

   C                       Cm
e--15------------------22--------------------------|
b--------------------------16--15--16--15----------|
g------------------------------------------12------|
d--------------------------------------------------|
a--------------------------------------------------|
E--------------------------------------------------|

G                   B             Em                       C
 With the best of intentions, you tried to give an ocean directions
G                               B7              C               Cm
 Think you're giving but you're taking my life away
G                   B        Em                            C
 So you came like a missile, leaving me the whole world in exile
G                               B7              C               Cm  <- with Riff #2
 Think you're giving but you're taking my life away

	         G5                      B5
	Like the drunk you convinced was sober
	        (Ahhhhhh,                ahhhhhh)
	    Em              C
	You keep me falling over
	   (Ahhhhhh,        ahhhhhh, in the..)
	   G                                 B7              C           Cm  <- with Riff #2
	      Think you're giving but you're taking my life away
	(..daylight)

G                               B7              C               Cm
 Think you're giving but you're taking my life away
Comments