I Am The Avalanche - I Took A Beating Chords & Tabs

 

I Took A Beating Chords & Tabs

I Am The Avalanche Chords & Tabs

Version: 1 Type: Tab

I Took A Beating Tab

I Am The Avalanche - I Took A Beating
By: BURY

Left Guitar

Verse

e|--------------------|
B|--------------------|
G|--6----6------------|  (x2)
D|--6----6----7----7--|
A|--4----4----7----7--|
E|------------5----5--|

Chorus

e|--------------------|             |-----------------------|
B|--------------------|             |-----------------------|
G|------------6-------|  (x3) then  |-----------------------|
D|--8----6----6----4--|             |----6----6----6----6---|
A|--8----6----4----4--|             |----6----6----6----6---|
E|--6----4---------2--|             |----4----4----4----4---|

Repeat Verse x3
Repeat entire Chorus

Bridge
()= Play only second time

e|----6---8-9-8----6---8-9-8----6---8-9-8--4------------|
B|--6---6--------6---6--------6---6----------6-4--------|
G|-----------------------------------------------(6-5)--|
D|------------------------------------------------------|
A|------------------------------------------------------|
E|------------------------------------------------------|

Repeat Verse x2
Repeat entire Chorus and end on first 2 chords of verse

---------------

Right Guitar

Verse
[ Tab from: http://www.guitartabs.cc/tabs/i/i_am_the_avalanche/i_took_a_beating_tab.html ]
e|--4----4----5----5--|
B|--6----6----5----5--|
G|--6----6----6----6--|  (x2)
D|--6----6----7----7--|
A|--4----4----7----7--|
E|------------5----5--|

Chorus

e|----------------------|             |--------------------|
B|----------------------|             |--------------------|
G|----------------------|  (x3) then  |--5----5----5----5--|
D|--------------3-------|             |--x----x----x----x--|
A|--4-3-4-3-3-4---6-4---|             |--3----3----3----3--|
E|-------------------6--|             |--------------------|

Repeat Verse x3
Repeat entire Chorus

Bridge
()= Play only second time


e|----------------------------------|
B|----------------------------------|
G|----------------------------------|
D|--8--4--8--4--8--4--6--6--(6--6)--|
A|--8--4--8--4--8--4--6--6--(6--6)--|
E|--6--2--6--2--6--2--4--4--(4--4)--|

Repeat Verse x2

Chorus

e|--------------------------------|        |--------------------|
B|--------------------------------|        |--------------------|
G|--6--5--6--8--6--8--10-8--6--3--|  (x3)  |--5----5----5----5--|
D|--x--x--x--x--x--x--x--x--x--x--|        |--x----x----x----x--|
A|--4--3--4--6--4--6--8--6--4--1--|        |--3----3----3----3--|
E|--------------------------------|        |--------------------|


End on first 2 chords of verse