I Against I - Stumble And Stare Chords & Tabs

 

Stumble And Stare Chords & Tabs

I Against I Chords & Tabs

Version: 2 Type: Bass Tab 0 ratings
1 star 2 stars 3 stars 4 stars 5 stars
comments

Stumble And Stare Bass Tab

Stumble And Stare - I Against I
tabbed by: ryan b

Play this one in E.

Riff A: (once)
A-----------11111111----------11111111--
E--44444444----------44444444-----------

Riff B: (once)
G---------------------------------------
D--------------------33333333-3---------
A-----------11111111--------------------
E--44444444-----------------------------

Riff C: (once)
G---------------------------------------
D--33333333-----------------------------
A--------------------11111111-11111111--
E-----------44444444--------------------

Riff D: (once)
G---------------------------------------------
D--33333333-------------22-55-77-88-77-55-22--
A--------------------33-----------------------
E-----------44444444--------------------------

Riff A: (once)

Riff E: (once)
A--------------------
E--44444444-6---6-4--
[ Tab from: http://www.guitartabs.cc/tabs/i/i_against_i/stumble_and_stare_btab_ver_2.html ]
Riff F: (once)
G---------------------------------------------
D--33333333-----------------------------------
A---------------------11111111--1-1-1-1--1----
E------------44444444----------------------4--

Riff G: (once)
G---------------------------------------
D--33333333-----------------------------
A---------------------11111111--1-------
E------------44444444-------------------

Riff C: (once)
Riff D: (once)
Riff A: (once)
Riff E: (once)
Riff F: (once)

Riff H: (once)
G---------------------------------------------
D--33333333-----------------------------------
A---------------------11111111--1-1-1-1--1----
E------------44444444----------------------3--

Riff I: (3 times)
A-----------------------------
E--4--44-4-4/6--66--6--6-6-3--

Riff J: (once)
A--------------------------------
E--11111111-1--5\4\3\2\1p0--6-4--

Riff F: (once)
Riff C: (once)

Riff K: (3 times)
G-----------------------
D------------3333-------
A-------1111------------
E--4444------------4-3--

Riff L: (once)
G---------------
D------------3--
A-------1111----
E--4444---------

Comments