I Against I - Ordinary Fight Chords & Tabs

 

Ordinary Fight Chords & Tabs

I Against I Chords & Tabs

Version: 1 Type: Bass Tab 0 ratings
1 star 2 stars 3 stars 4 stars 5 stars
comments

Ordinary Fight Bass Tab

   
Band:I against I
Song:Ordinary fight
Album:Headcleaner
Tabbed by:Punky Jerk(Punky_jerk@hotmail.com)

Note:As many punk songs,rythm is one of the most important things.Listen to
the CD!

Verse
G:------------------------------------------|
D:------------------------------------------|
A:5555-1111-3333-1111-5555-1111-3333-555555-|
E:------------------------------------------|

End verse
G:-----------------|
D:--00---00---00---|
A:3----3----3----3-|
E:-----------------|
[ Tab from: http://www.guitartabs.cc/tabs/i/i_against_i/ordinary_fight_btab.html ]
Pre-chorus
G:------------------------------|
D:------------------------------|
A:5555555555-11111111-333333333-|
E:------------------------------|

Chorus:
G:----------------------------------|
D:0-0----0-0-0--------0-0----1-1----|
A:----11-------33(3)------11-----33-|
E:----------------------------------|

Bridge
G:------------------|
D:------------------|
A:----111-3333h4343-|
E:333---------------|

It goes this way

Verse(x2)
End verse
Pre-corus(x2)
End verse
Chorus(x2)
End verse
Verse(x2)
End verse
Pre-chorus(x2)
End verse
Chorus(x2)
Bridge(x8)
Chorus(x4)

That's it.Ther emight a few fuck ups though.If anyone could mail me this
kick-ass song's lyrics,I'd gladly appreciativeŠThanx




Comments