Hywire - Crash Burn And Fail Chords & Tabs

 

Crash Burn And Fail Chords & Tabs

Hywire Chords & Tabs

Version: 3 Type: Tab 0 ratings
1 star 2 stars 3 stars 4 stars 5 stars
comments

Crash Burn And Fail Tab

This is my bands first song i hope u will hear it soon on the radio but in the mean
time here is the tab for it
Song Name:Crash Burn and Fail
Artist:HyWire
Vocals:Kyle Cleffi
Guitars:Anthony Corona Dave Bravo
Bass:Will Lowery
Verse One: Play twice with out rythem Guitar, then twice with rythem guitar.Try to Play
with  a Acoustic Guitar or if not when on a electric guitar play on the clean channel.
(Guitar 1)
|-------------------------------------------------|
|---------3---------3---------0---------0---------|
|-------2---------2---------0---------0-----------|
|-----0---------0---------2---------2-------------|
|---0---------0---------2---------2---------------|
|-3---------2---------0---------0-----------------|
(Guitar 2)Play With Guitar 1 twice on a light distortion, then twice with heavy distortion
with out guitar 1
|----------------------------------------------------|
|----------------------------------------------------|
|----------------------------------------------------|
|----5-5-5----4-4-4---2-x-x-2-x-2-x-2----------------|
|----5-5-5----4-4-4---2-x-x-2-x-2-x-2----------------|
|----3-5-3----2-2-2---0-x-x-0-x-0-x-0----------------|
Verse Two
(Guitar One)
Play twice with out rythem Guitar, then twice with rythem guitar.Try to Play with  a
Acoustic Guitar or if not when on a electric guitar play on the clean channel.
(Guitar 1)
|-------------------------------------------------|
|---------3---------3---------0---------0---------|
|-------2---------2---------0---------0-----------|
|-----0---------0---------2---------2-------------|
|---0---------0---------2---------2---------------|
|-3---------2---------0---------0-----------------|
(Guitar 2)Play With Guitar 1 twice on a light distortion, then twice with heavy distortion
with out guitar 1
|----------------------------------------------------|
|----------------------------------------------------|
|----------------------------------------------------|
|----5-5-5----4-4-4---2-x-x-2-x-2-x-2----------------|
|----5-5-5----4-4-4---2-x-x-2-x-2-x-2----------------|
|----3-5-3----2-2-2---0-x-x-0-x-0-x-0----------------|


Verse Three: Guitar one
|---------------------------------------|
|--3-3-3--3-3-3-------------------------|
|--2-2-2--2-2-2-------------------------|
|--0-0-0--0-0-0--2-2-2------------------|
|--0-0-0--0-0-0--2-2-2------------------|
|--3-3-3--2-2-2--0-0-0------------------|

Guitar 2)Play With Guitar 1 Unision
|----------------------------------------------------|
|----------------------------------------------------|
|----------------------------------------------------|
|----5-5-5----4-4-4---2-x-x-2-x-2-x-2----------------|
|----5-5-5----4-4-4---2-x-x-2-x-2-x-2----------------|
|----3-5-3----2-2-2---0-x-x-0-x-0-x-0----------------|

Email Me if u have any problems at Coronalight13086@cs.com
or Hywire119@cs.com
[ Tab from: http://www.guitartabs.cc/tabs/h/hywire/crash_burn_and_fail_tab_ver_3.html ]
Comments