Hypocrisy - Unleash The Beast Chords & Tabs

 

Unleash The Beast Chords & Tabs

Hypocrisy Chords & Tabs

Version: 1 Type: Tab 0 ratings
1 star 2 stars 3 stars 4 stars 5 stars
comments

Unleash The Beast Tab

   
                         HYPOCRISY - UNLEASH THE BEAST
                         From the Album - INTO THE ABYSS
                          Copyright: NUCLEAR BLAST 2000
                           Version 1.0 - DEC 21, 2001

Transcribed by: James Williams (Inverted)

For Questions, Comments, Newest Version, or Corrections contact
 Inverted: at Inverted_one@hotmail.com

Check Out Death8699.com, With More Transcriptions On It:
 http://www.death8699.com

.  - palm mute           /  - slide up to
\  - slide down to       ~  - vibrato
h  - hammer on           b  - Bend
p  - pull off            Suffixes for bend
t  - tap                 f  - full bend    h - half bend
ph - pinched harmonic    q  - quarter bend t - tap bend
*  - see comment         ^  - Hold bend    r release bend
x  - Stuccatto           ~  - vibrato bend
,  - slight palm mute    () - ghost note, sustained note
"  - tremolo note        <> - Trill

Tuning: "A"D"G"C"F"A"D"

UNLEASH THE BEAST!

*Note: Riffs 1 through 3 are only spaced out in groups of 4 to help
       you count.

Riff 1
|-------------------------------------------------------------------------
|-------------------------------------------------------------------------
|-------------------------------------------------------------------------
|--6-6-6-6--6-6-6-6--8-8-8-8--9-9-9-9--5-5-5-5--5-5-5-5--5-5-5-5--5-5-5-5-
|--4-4-4-4--4-4-4-4--6-6-6-6--7-7-7-7--3-3-3-3--3-3-3-3--3-3-3-3--3-3-3-3-
|-------------------------------------------------------------------------
|-------------------------------------------------------------------------

                                                                      Gtr I
---------------------------------------------------------------------------|
---------------------------------------------------------------------------|
---------------------------------------------------------------------------|
-6-6-6-6--6-6-6-6--8-8-8-8--9-9-9-9--5---5-5-5--5-5-5-5--------------------|
-4-4-4-4--4-4-4-4--6-6-6-6--7-7-7-7--3---3-3-3--3-3-3-3--------------------|
---------------------------------------------------------4-4-4-4--3-3-3-3--|
---------------------------------------------------------2-2-2-2--1-1-1-1--|


|-------------------------------------------------------------------------
|-------------------------------------------------------------------------
|-------------------------------------------------------------------------
|--6-6-6-6--6-6-6-6--8-8-8-8--9-9-9-9--5-5-5-5--5-5-5-5--5-5-5-5--5-5-5-5-
|--4-4-4-4--4-4-4-4--6-6-6-6--7-7-7-7--3-3-3-3--3-3-3-3--3-3-3-3--3-3-3-3-
|-------------------------------------------------------------------------
|-------------------------------------------------------------------------
[ Tab from: http://www.guitartabs.cc/tabs/h/hypocrisy/unleash_the_beast_tab.html ]
                                                                     GtR II
---------------------------------------------------------------------------|
---------------------------------------------------------------------------|
---------------------------------------------------------------------------|
-6-6-6-6--6-6-6-6--8-8-8-8--9-9-9-9--5---5-5-5--5-5-5-5--5-5-5-5--5-5-5-5--|
-4-4-4-4--4-4-4-4--6-6-6-6--7-7-7-7--3---3-3-3--3-3-3-3--3-3-3-3--3-3-3-3--|
---------------------------------------------------------------------------|
---------------------------------------------------------------------------|

Riff 2
|-------------------------------------------------------------------------
|-------------------------------------------------------------------------
|-------------------------------------------------------------------------
|-------------------------------------------------------------------------
|--4-4-4-4--4-4-4-4--6-6-6-6--7-7-7-7--3-3-3-3--3-3-3-3--3-3-3-3--3-3-3-3-
|--2-2-2-2--2-2-2-2--4-4-4-4--5-5-5-5--1-1-1-1--1-1-1-1--1-1-1-1--1-1-1-1-
|-------------------------------------------------------------------------

                                                                   Gtr I&II
---------------------------------------------------------------------------|
---------------------------------------------------------------------------|
---------------------------------------------------------------------------|
---------------------------------------------------------------------------|
-4-4-4-4--4-4-4-4--6-6-6-6--7-7-7-7--3---3-3-3--3-3-3-3--------------------|
-2-2-2-2--2-2-2-2--4-4-4-4--5-5-5-5--1---1-1-1--1-1-1-1--4-4-4-4--3-3-3-3--|
---------------------------------------------------------2-2-2-2--1-1-1-1--|

Riff 3                                                             Gtr I&II
|--------------------------------------------------------------------------|
|--------------------------------------------------------------------------|
|--------------------------------------------------------------------------|
|--4-4-4-4--4-4-4-4--7-7-7-7--7-7-7-7--6-6-6-6--6-6-6-6--------------------|
|--2-2-2-2--2-2-2-2--5-5-5-5--5-5-5-5--4-4-4-4--4-4-4-4--7-7-7-7--6-6-6-6--|
|--------------------------------------------------------5-5-5-5--4-4-4-4--|
|--------------------------------------------------------------------------|

Riff 4                     Gtr I                                Gtr II
|-------------------------------|  |----------------------------------|
|-------------------------------|  |----------------------------------|
|-------------------------------|  |----------------------------------|
|-------------------------------|  |----------------------------------|
|--5p4-4--2-4--5-4-2-4-5-4-2-4--|  |----------------------------------|
|-------------------------------|  |--10p9-9--7-9--10-9-7-9-10-9-7-9--|
|-------------------------------|  |----------------------------------|

I'm not going to bother with the song structure so just listen to the song
and figure it out yourself.

Check out my other tabs by Hypocrisy, Grave, Obituary and Six Feet Under.
You can E-mail me if you have any request for any other Hypocrisy songs.

Check Out Death8699.com, With More Transcriptions On It:
 http://www.death8699.com
Comments