Hypocrisy - The North Wind Chords & Tabs

 

The North Wind Chords & Tabs

Hypocrisy Chords & Tabs

Version: 1 Type: Tab 0 ratings
1 star 2 stars 3 stars 4 stars 5 stars
comments

The North Wind Tab

   
                            HYPOCRISY - THE NORTH WIND    
                      From the Album - THE FORUTH DIMENSION     
                          Copyright - NUCLEAR BLAST 1994
                            Version 1.0 - June 1, 2002


Transcribed by: James Williams (Inverted)

For Questions, Comments, Newest Version, or Corrections contact
Inverted: at Inverted_one@hotmail.com

Check Out Death8699.com Metaltabs.com or dsrmusic.com for More
Transcriptions:http://www.Death8699.com http://www.Metaltabs.com


.  - palm mute           /  - slide up to
\  - slide down to       ~  - vibrato
h  - hammer on           b  - Bend
p  - pull off            Suffixes for bend
t  - tap                 f  - full bend    h - half bend
ph - pinched harmonic    q  - quarter bend t - tap bend
*  - see comment         ^  - Hold bend    r release bend
x  - Stuccatto           ~  - vibrato bend
,  - slight palm mute    () - ghost note, sustained note
"  - tremolo note        <> - Trill

Tunning "B"E"A"D"F#"B"

Riff 1
|-----------------------------------------------|
|-----------------------------------------------|
|-----------------------------------------------|
|--------9--------12--------11--11\12/11----11--|
|--------7--------10---------9---9\10/-9-12--9--|
|--0-000----0-000-----0-000--------------10-----|
   . ...    . ...     . ...

Riff 2
|------------------------------------|----------------------------------------|
|------------------------------------|----------------------------------------|
|------------------------------------|----------------------------------------|
|------------------------------------|-----------------------1010101099999999-|
|------------------------------------|----------------------------------------|
|-0-000-000-000-000-000-888877777777-|-0-000-000-000-000-000------------------|
  . ... ... ... ... ...                . ... ... ... ... ...

Riff 3
|----------------------------------|------------------------------------|
|----------------------------------|------------------------------------|
|--------11--------------12-11--9--|--------11-------------11\12/11--9--|
|--9------9------12------10--9--7--|--9------9------12------9\10/-9--7--|
|--7-------------10----------------|--7-------------10------------------|
|--0-------------------------------|--0---------------------------------|


Riff 4
|--------------------------------|--------------------------------|
|--------------------------------|--------------------------------|
|--------------------------------|-----------------------7-7------|
|--2------9-9----5-5----5-5-4-4--|--2------9-9----5-5----7-7-4-4--|
|--2------9-9----5-5----5-5-4-4--|--2------9-9----5-5----5-5-4-4--|
|--0------7-7----3-3----3-3-2-2--|--0------7-7----3-3--------2-2--|

[ Tab from: http://www.guitartabs.cc/tabs/h/hypocrisy/the_north_wind_tab.html ]
Riff 5-A
|--------------------------------|--------------------------------|
|--------------------------------|--------------------------------|
|--------------------------------|-----------------------7-7------|
|--2------5-5----4-4----4-4-2-2--|--2------5-5----4-4----7-7-4-4--|
|--2------5-5----4-4----4-4-2-2--|--2------5-5----4-4----5-5-4-4--|
|--0----0-3-3--0-2-2--0-2-2-0-0--|--0----0-3-3--0-2-2--0-----2-2--|
        .      .      .                  .      .      .

Riff 5-B                                                    GTR I
|--------------------------------|--------------------------------|
|--------------------------------|--------------------------------|
|--------------------------------|-----------------------7-7------|
|--2------5-5----4-4----4-4-2-2--|--2------5-5----4-4----7-7-4-4--|
|--2------5-5----4-4----4-4-2-2--|--2------5-5----4-4----5-5-4-4--|
|--0------3-3----2-2----2-2-0-0--|--0------3-3----2-2--------2-2--|
        
                                                            GTR II
|--------------------------------|--------------------------------|
|--------------------------------|--------------------------------|
|--------------------------------|--------------------------------|
|--------------------------------|--------------------------------|
|--------------------------------|--------------------------------|
|--0"-----3"-----2""-------------|--0"-----3"-----2""-------------|


Riff 6                                               GTR I & II x2
|--------------------------------|--------------------------------|
|--------------------------------|--------------------------------|
|--------------------------------|--------------------------------|
|--------------------------------|--------------------------------|
|--------10"-----9""-------------|--------10"-----9"--10'9'---9'--|
|--0"----------------------------|--0"---------------------10'----|

                                                     GTR I & II x1
|--------------------------------|--------------------------------|
|--------------------------------|--------------------------------|
|--------------------------------|--------------------------------|
|--------10"-----9""-------------|--------10"-----9"--10'9'---9'--|
|--0"----------------------------|--0"---------------------10'----|
|--------------------------------|--------------------------------|

                                                        GTR I x1  
|--------------------------------|--------------------------------|
|--------------------------------|--------------------------------|
|--------------------------------|--------------------------------|
|--------------------------------|--------------------------------|
|--------10"-----9""-------------|--------10"-----9"--10'9'---9'--|
|--0"----------------------------|--0"---------------------10'----|

                                                        GTR II x1 
|--------------------------------|--------------------------------|
|--------------------------------|--------------------------------|
|--------12"----11""-------------|--------12"----11"--12'11'---11'|
|--------------------------------|--------------------------12'---|
|--------------------------------|--------------------------------|
|--0"----------------------------|--0"----------------------------|


Song ends on an E5 Chord


Check out my other tabs by: Deicide, Obituary, Hypocrisy,
Grave, Catastrophic, Six Feet Under, Incantation and Death
Comments