Hypocrisy - Slaughtered Chords & Tabs

 

Slaughtered Chords & Tabs

Hypocrisy Chords & Tabs

Version: 1 Type: Tab 0 ratings
1 star 2 stars 3 stars 4 stars 5 stars
comments

Slaughtered Tab

   
                              HYPOCRISY - SLAUGHTERED          
                      From the Album - THE FORUTH DIMENSION     
                          Copyright - NUCLEAR BLAST 1994
                              Version 1.0 - May 2002


Transcribed by: James Williams (Inverted)

For Questions, Comments, Newest Version, or Corrections contact
Inverted: at Inverted_one@hotmail.com

Check Out Death8699.com Metaltabs.com or dsrmusic.com for More
Transcriptions:http://www.Death8699.com http://www.Metaltabs.com


.  - palm mute           /  - slide up to
\  - slide down to       ~  - vibrato
h  - hammer on           b  - Bend
p  - pull off            Suffixes for bend
t  - tap                 f  - full bend    h - half bend
ph - pinched harmonic    q  - quarter bend t - tap bend
*  - see comment         ^  - Hold bend    r release bend
x  - Stuccatto           ~  - vibrato bend
,  - slight palm mute    () - ghost note, sustained note
"  - tremolo note        <> - Trill

Tunning "B"E"A"D"F#"B"


Intro (Bass Line) 
|-------------|------------|------------|-------------| 
|-------------|------------|------------|-------------| 
|-------------|------------|------------|-------------| 
|--0--2--3--2-|-8--7--0--2-|-3--2--7--5-|-0--2--3--2--| 


Riff 1-A 
|-------------|------------|------------|-------------| 
|-------------|------------|------------|-------------| 
|-------------|------------|------------|-------------| 
|-------------|------------|------------|-------------| 
|--2--4--5--4-|-10-9--2--4-|-5--4--9--7-|-2--4--5--4--| 
|--0--2--3--2-|-8--7--0--2-|-3--2--7--5-|-0--2--3--2--| 


Riff 1-B 
|-------------|------------|------------|-------------| 
|-------------|------------|------------|-------------| 
|-------------|------------|------------|-------------| 
|-------------|------------|------------|-------------| 
|--2--4--5--4-|-10-9--2--4-|-5--4--9--7-|-2--4--5--4--| 
|--0--2--3--2-|-8--7--0--2-|-3--2--7--5-|-0--2--3--2--| 
   .  .  .  .   .  .  .  .   .  .  .  .   .  .  .  . 

Riff 2                                                GTR I
|-----------------------------------------------------------| 
|-----------------------------------------------------------| 
|-----------------------------------------------------------| 
|-----------------------------------------------------------| 
|--9\10/9-----4\5/4-----9\10/9---9\10/9-----4\5/4--9--7--5--| 
|--7\-8/7--0--2\3/2--0--7\-8/7-0-7--8/7--0--2\3/2--7--5--3--| 
|          .         .         .         .                  |
|-----------------------------------------------------------| 
|-----------------------------------------------------------| 
|-----------------------------------------------------------| 
|-----------------------------------------------------------| 
|--9\10/9-----4\5/4-----9\10/9---9\10/9-----4\5/4--7--5--4--| 
|--7\-8/7--0--2\3/2--0--7\-8/7-0-7--8/7--0--2\3/2--5--3--2--| 
           .         .         .         . 

                                                      GTR II
|-----------------------------------------------------------| 
|-----------------------------------------------------------| 
|-----------------------------------------------------------| 
|-----------------------------------------------------------| 
|--9\10/9-----4\5/4-----9\10/9---9\10/9-----4\5/4--9--7--5--| 
|--7\-8/7--0--2\3/2--0--7\-8/7-0-7--8/7--0--2\3/2--7--5--3--| 
|          .         .         .         .                  |
|-----------------------------------------------------------| 
|-----------------------------------------------------------| 
|-----------------------------------------------------------| 
|-----------------------------------------------------------| 
|--9\10/9-----4\5/4-----9\10/9---9\10/9-----4\5/4--ph-ph-ph-| 
|--7\-8/7--0--2\3/2--0--7\-8/7-0-7--8/7--0--2\3/2--5--3--2~-| 
           .         .         .         . 

Riff 3                                                         GTR I  x1
|-----------------------------------------------------------------------| 
|-----------------------------------------------------------------------|
|-----------------------------------------------------------------------|
|--2-------------10-----------10----2--------------7-----------10----9--| 
|--2--------------8------------8----2--------------5-----------10----9--| 
|--0--------------8------------8----0--------------5------------8----7--| 
|                                                                     x3|
|-----------------------------------------------------------------------| 
|-----------------------------------------------------------------------|
|-----------------------------------------------------------------------|
|--2-------------10-----------------2--------------7-----------10----9--| 
|--2--------------8-----------------2--------------5-----------10----9--| 
|--0--------------8-----------------0--------------5------------8----7--| 
[ Tab from: http://www.guitartabs.cc/tabs/h/hypocrisy/slaughtered_tab.html ]
                                                               GTR II x1
|-----------------------------------------------------------------------| 
|-----------------------------------------------------------------------|
|-----------------------------------------------------------------------|
|--2-------------10-----------10----2--------------7-----------10----9--| 
|--2--------------8------------8----2--------------5-----------10----9--| 
|--0--------------8------------8----0--------------5------------8----7--| 
|                                                                     x1|
|-----------------------------------------------------------------------| 
|-----------------------------------------------------------------------|
|-----------------------------------------------------------------------|
|--2-------------10-----------------2--------------7-----------10----9--| 
|--2--------------8-----------------2--------------5-----------10----9--| 
|--0--------------8-----------------0--------------5------------8----7--| 
|                                                                     x2|
|-----------------------------------------------------------------------|
|-----------------------------------------------------------------------|
|-----------------------------------------------------------------------|
|--2-2-2-2-2-2-2-10-10101010101010--2-2-2-2-2-2-2--7--7-7-7-7--10----9--| 
|--2-2-2-2-2-2-2--8--8-8-8-8-8-8-8--2-2-2-2-2-2-2--5--5-5-5-5--10----9--| 
|--0-0-0-0-0-0-0--8--8-8-8-8-8-8-8--0-0-0-0-0-0-0--5--5-5-5-5---8----7--| 
   . . . . . . .  .  . . . . . . .  . . . . . . .  .  . . . .

Riff 4
|-------------|-------------|------------|-------------| 
|-------------|-------------|------------|-------------| 
|-------------|-------------|------------|-------------| 
|-------------|-------------|------------|-------------|
|-10-/9--9\10-|-10-/9--9-/7-|-7-/5--5-\7-|-7-/5-/5-/4--|
|--8-/7--7\-8-|--8-/7--7-/5-|-5-/3--3-\5-|-5-/3-/3-/2--| 
|                                                      |
|-------------|-------------|------------|-------------| 
|-------------|-------------|------------|-------------| 
|-------------|-------------|------------|-------------| 
|-------------|-------------|------------|-------------|
|-10-/9--9\10-|-10-/9--9-/7-|-7-/5--5-\7-|-7x----5x-5x-|
|--8-/7--7\-8-|--8-/7--7-/5-|-5-/3--3-\5-|-5x----3x-3x-| 

Repeat Riff 2

Riff 3                                                         GTR I  x2
|-----------------------------------------------------------------------| 
|-----------------------------------------------------------------------|
|-----------------------------------------------------------------------|
|--2-------------10-----------10----2--------------7-----------10----9--| 
|--2--------------8------------8----2--------------5-----------10----9--| 
|--0--------------8------------8----0--------------5------------8----7--| 

                                                               GTR II x1
|-----------------------------------------------------------------------| 
|-----------------------------------------------------------------------|
|-----------------------------------------------------------------------|
|--2-------------10-----------------2--------------7-----------10----9--| 
|--2--------------8-----------------2--------------5-----------10----9--| 
|--0--------------8-----------------0--------------5------------8----7--| 
|                                                                     x1|
|-----------------------------------------------------------------------|
|-----------------------------------------------------------------------|
|-----------------------------------------------------------------------|
|--2-2-2-2-2-2-2-10-10101010101010--2-2-2-2-2-2-2--7--7-7-7-7--10----9--| 
|--2-2-2-2-2-2-2--8--8-8-8-8-8-8-8--2-2-2-2-2-2-2--5--5-5-5-5--10----9--| 
|--0-0-0-0-0-0-0--8--8-8-8-8-8-8-8--0-0-0-0-0-0-0--5--5-5-5-5---8----7--| 
   . . . . . . .  .  . . . . . . .  . . . . . . .  .  . . . .

Fill
|------------------------------------------------------------------------|
|------------------------------------------------------------------------|
|------------------------------------------------------------------------|
|--2--(2)----------------------------------------------------------------|
|--2--(2)----------------------------------------------------------------|
|--0--(0)--let ring------------------------------------------------------|


Solo 
|--12^-12^----------------------------17^-17--17-17-17-17-17-17-17-17-17- 
|--12^-12^-----bf---------------------bf---------------------------------
|--bf--bf--12--14^~---12h14p12------------------------------------------- 
|-------------------------------14~-------------------------------------- 
|------------------------------------------------------------------------ 
|------------------------------------------------------------------------ 

                       * Wah Wah effects w/expression pedal 'til the end 
-17-17-17-17-17-17-17r---------------------------------------------------
-------------------------------------------------------------------------
------------------------------------------------------------------------- 
-----------------------------------1212---------12121414-----121214141616
-----------------------121214141515-----14141515---------1515------------ 
------------------------------------------------------------------------- 
       

----------------------------------------------------------------bf-------
----------------------------------------------------------------13^r----- 
-------------1212---------12121414-----121214141616-121214141616------14-
-121214141616-----14141616---------1616----------------------------------
------------------------------------------------------------------------- 
-------------------------------------------------------------------------


---bf-------------------------------------------------------------------- 
---13^r--13~-------------------------------------------------------------
16------------16--14--16--14--12--14~---12h14p12------------------------- 
--------------------------------------------------14~-------14--13~------ 
------------------------------------------------------------------------- 
------------------------------------------------------------------------- 


-------------------------------------------------------------------------| 
-------------------------------------------------------------------------| 
-13--12~-------12--11~---------------------------------------------------| 
-------------------------------------------------------------------------| 
---------------------------/-7~-------7--6~-------6--5~-------5--4~------| 
-------------------------------------------------------------------------| 


End
|------------------------------------------------------------------------|
|------------------------------------------------------------------------|
|------------------------------------------------------------------------|
|--2--(2)----------------------------------------------------------------|
|--2--(2)----------------------------------------------------------------|
|--0--(0)--let ring------------------------------------------------------|


Check out my other tabs by: Deicide, Obituary, Hypocrisy,
Grave, Catastrophic, Six Feet Under, Incantation and Death
Comments