Hypocrisy - Paled Empty Sphere Chords & Tabs

 

Paled Empty Sphere Chords & Tabs

Hypocrisy Chords & Tabs

Version: 1 Type: Tab 0 ratings
1 star 2 stars 3 stars 4 stars 5 stars
comments

Paled Empty Sphere Tab

   
                        HYPOCRISY -PALED EMPTY SPHERE
                           From the Album Hypocrisy
                         Copyright 1999 Nuclear Blast
                           Version 1.0 -|JULY 2000

Transcription Done By: Tim Chao "icrapkorn@hotmail.com"

Check Out Death Warp, With More Transcriptions On It:
 http://tiger.towson.edu/~dalvis1

Notation:
          b = bend              / = slide up            a.h. = artificial
          bf= bend full         br= bend release               harmonic
          h = hammer-on         \ = slide down             > = abrupt stop
          p = pull-off          . = palm mute(pm)          t = tapping
          " = tremolo picking

Tuning = E (E,A,D,G,B,E)

|--------------------------------------------------------------
|--------------------------------------------------------------
|----------------------0-------0-------------------------------
|----5--------5------4---4---2---2-----------------------------
|--7---7----7---7--5-------3-----------------------------------
|0--------0----------------------------------------------------
   Em                 D       C

Intro Solo. Peter pretty much plays a straight forward E minor scale
with a few changes here and there.
|--------------------------------------------------------------
|--------------------------------------------------------------
|-----------9-7------------------------------------------------
|-------7-9-----10-9-10-(9)-7-9---7h9h10-9-10-7-9--------------
|7-9-10--------------------------------------------------------
|--------------------------------------------------------------

|--------------------------------------------------------------
|---------------------------------9-8-------9-8----------------
|--------------9-7---------------------------------------------
|----------7-9-----10-9-10-9-7-9-------10----------------------
|10-7-9-10-----------------------------------------------------
|--------------------------------------------------------------

|--------------------------------------------------------------
|--------------------------------------------------------------
|--------------10-8----------------------------7-6-------------
|10-8-10-11-10------11-10-8-10-11-10-----7-7-9-----------------
|------------------------------------7-9-----------------------
|--------------------------------------------------------------

|--------------------------------------------------------------
|--------------------------------------------------------------
|9-7-----------------------------------------------------------
|----10-9-7----------------------------------------------------
|-----------10-9-7---------------------------------------------
|--------------------------------------------------------------
[ Tab from: http://www.guitartabs.cc/tabs/h/hypocrisy/paled_empty_sphere_tab.html ]
the "eerie" part after that
|--------------------------------------------------------------
|--------------------------------------------------------------
|--------------------------------------------------------------
|----9-----9------9-----9-----10-----10-----10-----10----------
|--7-----7-----7------7-----7------7------7------7-------------
|0-----0-----0------0-----0------0------0------0---------------

the fill whenever you hear the high sounding keyboard effect.
you have to listen closely to get it.
|--------------3-------------------------3---------------------
|------3-5-3-----5--------------3-5-3-------4------------------
|2-4-5-------4------4--2--4--5---------4-----------------------
|--------------------------------------------------------------
|--------------------------------------------------------------
|--------------------------------------------------------------

play this part twice
|--------------------------------------------------------------
|--------------------------------------------------------------
|9--7--5--4----9--7--5--4--------------------------------------
|9--7--5--4----9--7--5--4--------------------------------------
|7--5--3--2----7--5--3--2--------------------------------------
|7--5--3--2----7--5--3--2--------------------------------------

|0-----0---------------------------------------------------------
|0-----0---------------------------------------------------------
|0-----0---------------------------------------------------------
|2-----2---------------------------------------------------------
|2-----2---------------------------------------------------------
|0-----0---------------------------------------------------------
Em

Ending Solo
|--------10-8-7-7h8p7----7-12-10-8-----------------------------
|10-8-7---------------10------------12--10--8-10-8-10----------
|--------------------------------------------------------------
|--------------------------------------------------------------
|--------------------------------------------------------------
|--------------------------------------------------------------

|-----------15~14-17~15-17~-22~-22-20-19-20-19----19-----------
|10~-15~-13------------------------------------22----22-20-----
|--------------------------------------------------------------
|--------------------------------------------------------------
|--------------------------------------------------------------
|--------------------------------------------------------------

another guitar does this really fast thing at the end of the solo.
|--------------------------------------------------------------
|--------------------------------------------------------------
|--------------7-9-10------------------------------------------
|-------7-9-10-------------------------------------------------
|7-9-10--------------------------------------------------------
|--------------------------------------------------------------

Check Out Death Warp, With More Transcriptions On It:
 http://tiger.towson.edu/~dalvis1
Comments