Hypocrisy - Black Forest Chords & Tabs

 

Black Forest Chords & Tabs

Hypocrisy Chords & Tabs

Version: 1 Type: Tab 0 ratings
1 star 2 stars 3 stars 4 stars 5 stars
comments

Black Forest Tab

   
                           HYPOCRISY - BLACK FOREST
                      From the Album:THE FOURTH DIMENSION
                         Copyright: 1994 Nuclear Blast

                           Version 1.0 August 25,2001


Transcribed by:David Williams (WARLOCK)
and James Williams (INVERTED)
e-mail:smann@ainet.com

Notation used:

. - palm mute

/ - slide up 

\ - slide down 

x - mute all strings (staccato) 

 This is the first song I've tabbed from start to finish,(Don't worry
all the riffs are correct.)I hope you like it.


Tuning: "C"F"A#"D#"G"C" (Two whole steps down!)


Riff 1
|----------------------------------------------|
|----------------------------------------------|
|--9----9----9-/-7-----------------------------|
|--9----9----9-/-7----7-\-8----8-/-7----7---8--|
|--7----7----7-/-5----7-\-8----8-/-7----7---8--|
|---------------------5-\-6----6-/-5----5---6--|

Riff 2
|-------------------------------------------|
|-------------------------------------------|
|--7-\-9---9-/-7----------------------------|
|--7-\-9---9-/-7---8------7---8------8---7--|
|--5-\-7---7-/-5---8------7---8------8---7--|
|------------------6------5---6------6---5--|

Riff 3                                        Fill 1
|------------------------------------------| ||-------||
|------------------------------------------| ||-------||
|------------------------------------------| ||-------||
|--7---7---7---7-\-8----5---5---5---7-\-8--| ||---7---||
|--7---7---7---7-\-8----5---5---5---7-\-8--| ||---7---||
|--5---5---5---5-\-6----3---3---3---5-\-6--| ||---5---||

Riff 4 - A
|---------------------------------------------|
|---------------------------------------------|
|---------------------------------------------|
|--7x---------------7\8-5x---------------7\8--|
|--7x---------------7\8-5x---------------7\8--|
|--5x--555-555-555--5\6-3x--333-333-333--5\6--|
pm     ... ... ...          ... ... ...      

Riff 4 - B 
|---------------------------------------------|
|---------------------------------------------|
|---------------------------------------------|
|--7x---------------7\8-5x---------------7\8--|
|--7x---------------7\8-5x---------------7\8--|
|--5x---------------5\6-3x---------------5\6--|
[ Tab from: http://www.guitartabs.cc/tabs/h/hypocrisy/black_forest_tab.html ]
Riff 4 - C
|---------------------------------------------|
|---------------------------------------------|
|---------------------------------------------|
|--7--------------8-------5--------------8----|
|--7--------------8-------5--------------8----|
|--5--------------6-------3--------------6----|

Riff 5
|---------------------------------------------|
|---------------------------------------------|
|-------------9-----------------7-------------|
|--10--9--7------10--9---10--9----------------|
|---------------------------------------------|
|----------------------------------0--0-0-0---|
pm                                 .  . . . 

Bridge 
|-------------------------------------------------
|-------------------------------------------------
|-------------------------------------------------
|-------------------------------------------------
|-------------------------------------------------
|--0--0-0-0-0-0--0-0-0-0-0--0-0-0-0-0--0-0-0-0-0--
pm .  . . . . .  . . . . .  . . . . .  . . . . .

 -----------------------------------------------------|
 -----------------------------------------------------|
 -----------------------------------------------------|
 -----------------------------------------------------|
 -----------------------------------------------------|
 --0-0-0-0-0--0-0-0-0-0--0-0-0-0-0--0-0-0-0-0--0-0-0--|
   . . . . .  . . . . .  . . . . .  . . . . .  

Outro
|------------------------------------------------
|------------------------------------------------
|--7---7---7----9-/-7----10--10\-12-/-10--10/-9--
|--5---5---5----7-/-5----8---8-\-10-/-8---8-/-7--
|------------------------------------------------
|------------------------------------------------

 ------------------------------------------------|
 ------------------------------------------------|
 --9---9---9----9-\-10---8---8---8----8-\-9------|
 --7---7---7----7-\-8----6---6---6----6-\-7------|
 ------------------------------------------------|
 ------------------------------------------------|


SONG STRUCTURE:

Riff 1 x 8
Riff 2 x 4
Riff 1 x 4
Riff 2 x 4
Riff 3 x 4
Fill 1 x 1
Riff (4-A) x 10 Gtr I
Riff (4-B) x 2  (4-A) x 8 Gtr II
Fill 1 x 1
Riff 5 x 4
Bridge x 1
Riff 5 x 4
Riff (4-A) x 4
Riff (4-C) x 4
Fill 1 x 4
Outro  x 7 Fade out...
End !

 I hope this keeps you busy for a while,my brother and I are still
working on various Hypocrisy tabs,mean while check out some of our
other tabs by Hypocrisy,"Take The Throne and Attachment To The 
Ancestor,"and also by Obituary,"Dying,Corrosive,Rewind,Pressure 
point and Body bag."Please let us know what you think.
Comments