Hypocrisy - A Comming Race Chords & Tabs

 

A Comming Race Chords & Tabs

Hypocrisy Chords & Tabs

Version: 1 Type: Tab 0 ratings
1 star 2 stars 3 stars 4 stars 5 stars
comments

A Comming Race Tab

                             

                                HYPOCRISY - A COMMING RACE
                             From the album THE FINAL CHAPTER
                               Copyright NUCLEAR BLAST 1997
                                        Version 1.0


Transcribed by Dennis Brandeby
dennan999@hotmail.com


NOTE:
I haven't transcribed the whole song yet, but it's comming!



.  - palm mute                          /  - slide up to                       
\  - slide down to                      ~  - vibrato                            
"  - tremelo picking                    b  - bend
p  - pull off                           h  - hammer-on

	

  riff 1. gtr 1&2.
e|-------------------------------------------------------------------|
B|-------------------------------------------------------------------|
G|-------------------------------------------------------------------|
D|--2-2-2-2-2-2-2-4-5-5-5-5-5-5-5-5----------------------------------|
A|--0-0-0-0-0-0-0-2-3-3-3-3-3-3-3-3-2-2-2-2-2-2-2-2-2-2-2-2-2-2-2-2--|
E|----------------------------------0-0-0-0-0-0-0-0-0-0-0-0-0-0-0-0--|

  

  riff 2. gtr 1.
e|-------------------------------------------------------------------|
B|-------------------------------------------------------------------|
G|-------------------------------------------------------------------|
D|-------------------------------------------------------------------|
A|--4-4-4-4-4-4-4-6-7-7-7-7-7-7-7-7-6-6-6-6-6-6-6-6-6-6-6-6-6-6-6-6--|
E|--2-2-2-2-2-2-2-4-5-5-5-5-5-5-5-5-4-4-4-4-4-4-4-4-4-4-4-4-4-4-4-4--|
 |
 |gtr 2.
e|---------------------------------------------------------|
B|---------------------------------------------------------|
G|---------------------------------------------------------|
D|--7"-11"-9"-7"-7"-11"-9"-7"-6"-11"-9"-7"-9"-11"-9"-7"----|
A|---------------------------------------------------------|
E|---------------------------------------------------------|
 |
 |gtr 2. 
e|---------------------------------------------------------|
B|---------------------------------------------------------|
G|---------------------------------------------------------|
D|--7"-11"-9"-7"-7"-11"-9"-7"-6"-11"-9"-7"-9"-11"-12"-11"--|
A|---------------------------------------------------------|
E|---------------------------------------------------------|
 |
 |gtr 3.
e|------------------------------------------------------------|
B|------------------------------------------------------------|
G|------------------------------------------------------------|
D|--9"-12"-11"-9"-9"-12"-11"-9"-8"-12"-11"-9"-11"-12"-11"-9"--|
A|------------------------------------------------------------|
E|------------------------------------------------------------|
 |
 |gtr 3.
e|-------------------------------------------------------------|
B|-------------------------------------------------------------|
G|-------------------------------------------------------------|
D|--9"-12"-11"-9"-9"-12"-11"-9"-8"-12"-11"-9"-11"-12"-14"-12"--|
A|-------------------------------------------------------------|
E|-------------------------------------------------------------|
[ Tab from: http://www.guitartabs.cc/tabs/h/hypocrisy/a_comming_race_tab.html ]
  riff 3. gtr 1.
e|---------------------------------------|
B|---------------------------------------|
G|---------------------------------------|
D|--6---6-----6---6-----6---6-----3------|
A|--4---4-4-4-3---3-3-3-2---2-2-2-1------|
E|---------------------------------------|
 |        . .       . .       . .              
 |gtr 2.
e|------------------------------------------------------|
B|-------------------------------------------------666--|
G|---------------------------------------------666------|
D|------------------------------------------------------|
A|--7-9-7-6-7~---7-9-7-6-7~---7-9-7-6-7~---4~-----------|
E|------------------------------------------------------|
 |
 |gtr 3.
e|-------------------------------------------------444--|
B|---------------------------------------------555------|
G|------------------------------------------------------|
D|--5-7-5-4-5~---5-7-5-4-5~---5-7-5-4-5~---2~-----------|
A|------------------------------------------------------|
E|------------------------------------------------------|

  riff 4. gtr 1.
e|----------------------------------|
B|----------------------------------|
G|----------------------------------|
D|----------------------------------|
A|--7------7-6------5-4-------------|
E|--5------5-4------3-2-------------|
 |
 |gtr 2.
e|----------------------------------|
B|----------------------------------|
G|----------------------------------|
D|--7~--9-11-6~-----5~--7-9-4~------|
A|----------------------------------|
E|----------------------------------|
 

  riff 5. gtr 1.
e|-----------------------------------------------------------|
B|-----------------------------------------------------------|
G|-----------------------------------------------------------|
D|----------6-6-6-6---------7-7-7-7---------9-9-9-9----------|
A|--6-6-6-6-4-4-4-4-7-7-7-7-5-5-5-5-8-8-8-8-7-7-7-7-7-7-7-7--|
E|--4-4-4-4---------5-5-5-5---------6-6-6-6---------5-5-5-5--|
 |
 |gtr 2.
e|------------------------------------------------------------------------|
B|--12"-9"----9"-12"-9"----9"-14"-9"----9"-14"-10"----10"-14"-10"----10"--|
G|---------11"----------11"----------11"-----------13"------------13"-----|
D|------------------------------------------------------------------------|
A|------------------------------------------------------------------------|
E|------------------------------------------------------------------------|
 |
 |gtr 2.
e|-----------------------------------------------------------|
B|---------------------------/15"-12"----12"-15"-12"----12"--|
G|--11"-7"----7"-11"-7"----7"---------15"------------15"-----|
D|---------11"----------11"----------------------------------|
A|-----------------------------------------------------------|
E|-----------------------------------------------------------|
 |
 |gtr 2.
e|---------------------------------------------------------------|
B|--15"-12"----12"-15"-12"----12"-14"-10"----10"-14"-10"----10"--|
G|----------12"------------12"------------13"------------13"-----|
D|---------------------------------------------------------------|
A|---------------------------------------------------------------|
E|---------------------------------------------------------------|
 |
 |gtr 2.
e|-------------------------------------------------------------12--14~--|
B|--14"-15"-14"-12"-14"-15"-14"-12"-14"-15"-14"-12"-14"-15"-14"---------|
G|----------------------------------------------------------------------|
D|----------------------------------------------------------------------|
A|----------------------------------------------------------------------|
E|----------------------------------------------------------------------|
Comments