Hurt Process - This Piece Chords & Tabs

 

This Piece Chords & Tabs

Hurt Process Chords & Tabs

Version: 1 Type: Tab 0 ratings
1 star 2 stars 3 stars 4 stars 5 stars
comments

This Piece Tab

   
----------------------------------------------------------------------------
			     The Hurt Process - This Piece
----------------------------------------------------------------------------
Tabbed by:Peter Marriott And Jon Maidment

Tuning:Drop D

Ok, second hurt process tab. First song off Drive by Monologue, brilliant song. 
Managed all of it except that slow picking part which i wil figure out but for now,
this is the rest of the song.

e|-----------------------------------------------------|
B|-----------------------------------------------------|
G|-7--------10-----9------7------9---------------------|
D|-5-(x18)--x-(x3)-x-(x3)-x-(x3)-x-(x8)----------------|
A|-7--------8------7------5------7---------------------|
D|-----------------------------------------------------|

e|-----------------------------------------------------|
B|-----------------------------------------------------|
G|-5-------12-----11----14-----12-----11/12-11/12-----|
D|-3-(x18)-x-(x3)-x-(x3)-x-(x3)-x-(x3)--x/-x--x/-x-----|
A|-5-------10-----9-----12-----10------9/10--9/10-----|
D|-----------------------------------------------------|

e|-----------------------------------------------------|
B|-----------------------------------------------------|
G|-7--------10-----9------7------9---------------------|
D|-5-(x18)--x-(x3)-x-(x3)-x-(x3)-x-(x8)----------------|
A|-7--------8------7------5------7---------------------|
D|-----------------------------------------------------|

e|---------------------------------|
B|---------------------------------|
G|-5-------12-----11-----14--------|
D|-3-(x18)-x-(x3)-x-(x3)-x-(x8)----|
A|-5-------10-----9------12--------|
D|---------------------------------|
[ Tab from: http://www.guitartabs.cc/tabs/h/hurt_process/this_piece_tab.html ]
e|-------------------------------------------------------------------------|
B|-------------------------------------------------------------------------|
G|-----------------------------------------------12-12-12-9-9-9-10-10------|
D|-7-7-7-7-7--7-7-7-7-7--9-9-9--7-7-7-7-7--7-7-----------------------------|
A|-7-7-7-7-7--7-7-7-7-7--9-9-9--7-7-7-7-7--7-7-----------------------------|
D|-7-7-7-7-7--7-7-7-7-7--9-9-9--7-7-7-7-7--7-7-----------------------------|
   . . . .    . . . .    . .    . . . .    . .
e|-------------------------------------------------|
B|-------------------------------------------------|
G|-------------------------------------------------|
D|-7-7-7-7-7--7-7-7-7-7--9-9-9--7-7-7-7-7--7-7-7---|
A|-7-7-7-7-7--7-7-7-7-7--9-9-9--7-7-7-7-7--7-7-7---|
D|-7-7-7-7-7--7-7-7-7-7--9-9-9--7-7-7-7-7--7-7-7---|
   . . . .    . . . .    . .    . . . .    . . 
e|-------------------------------------------------------------------------|
B|-------------------------------------------------------------------------|
G|-----------------------------------------------12-12-12-9-9-9-10-10------|
D|-7-7-7-7-7--7-7-7-7-7--9-9-9--7-7-7-7-7--7-7-----------------------------|
A|-7-7-7-7-7--7-7-7-7-7--9-9-9--7-7-7-7-7--7-7-----------------------------|
D|-7-7-7-7-7--7-7-7-7-7--9-9-9--7-7-7-7-7--7-7-----------------------------|
   . . . .    . . . .    . .    . . . .    . .
e|-------------------------------------------------------------------------|
B|--------------------------------------------------------------12h13p12---|
G|-----------------------------------------------12-12-12-9-9-9------------|
D|-7-7-7-7-7--7-7-7-7-7--9-9-9--7-7-7-7-7--7-7-----------------------------|
A|-7-7-7-7-7--7-7-7-7-7--9-9-9--7-7-7-7-7--7-7-----------------------------|
D|-7-7-7-7-7--7-7-7-7-7--9-9-9--7-7-7-7-7--7-7-----------------------------|
   . . . .    . . . .    . .    . . . .    . .

e|-------------------------------------------------------------------------|
B|-------------------------------------------------------------------------|
G|----------------------------------------14------17------15-----14--------|
D|-7--7--7---5--5--5---7--7--7---5--5--5--x-(x16)-x-(x10)-x-(x4)-x(x3)-----|
A|-7--7--7---5--5--5---7--7--7---5--5--5--12------15------13-----12--------|
E|-7--7--7---5--5--5---7--7--7---5--5--5-----------------------------------|

e|----------------------|
B|----------------------|
G|----------------------|
D|-7---7---7---5--------|
A|-7---7---7---5-(x16)--|
E|-7---7---7---5--------|
               .

| /  slide up
| \  slide down
| h  hammer-on
| p  pull-off
| ~  vibrato
| +  harmonic
| .  Palm Mute
============================================================================
Comments