Hurt Process - A Mind With Two Faces Chords & Tabs

 

A Mind With Two Faces Chords & Tabs

Hurt Process Chords & Tabs

Version: 1 Type: Tab 0 ratings
1 star 2 stars 3 stars 4 stars 5 stars
comments

A Mind With Two Faces Tab

   
Tabbed By : Neil
Artist : The Hurt Process
Song : A Mind With Two Faces
Album : A Heartbeat Behind
Email : random_meh_oof@hotmail.com

Tuning : Drop C (C-G-C-F-A-D)

|-------------------------------|
|-------------------------------|
|---------5-5-5-----------------|
|---3----3-3-3------------------|
|-5--5-----------3-3-3-3-3-3----|
|-------------------------------|
[ Tab from: http://www.guitartabs.cc/tabs/h/hurt_process/a_mind_with_two_faces_tab.html ]
|-------------------------------|
|-------------------------------|
|--------3-3-3------------------|
|---3----3-3-3------------------|
|-5--5-----------3-3-3----------|
|-------------------------------|

|-------------------------------|
|-------------------------------|
|--------2-2-2------------------|
|---3----3-3-3------------------|
|-1--1-----------3-3-3-3-3-3----|
|-------------------------------|

|-------------------------------|
|-------------------------------|
|--------2-2-2------------------|
|---3----3-3-3------------------|
|-1--1-----------3-3-3-3--------|
|-------------------------------|

this probably aint right, but it works for me!
email me if you have any problems/questions
random_meh_oof@hotmail.com
Comments