Hurriganes - Roadrunner Chords & Tabs

 

Roadrunner Chords & Tabs

Hurriganes Chords & Tabs

Version: 4 Type: Tab 0 ratings
1 star 2 stars 3 stars 4 stars 5 stars
comments

Roadrunner Tab

                 Hurriganes-Roadrunner

Main Riff

E---------------------------|---------------------------|
B---------------------------|---------------------------|
G---------------------------|---------------------------|
D---------------------------|---------------------------|
A--0-0-0-----0-0-2-2-0--2---|0-2h3h4--------------------|
E--------2-2----------------|---------------------------|

Riff 1

E---------------------------|---------------------------|
B---------------------------|---------------------------|
G---------------------------|---------------------------|
D---------------------------|---------------------------|
A------0-0-2-2-0-0----------|---------------------------|
E--2-2----------------------|---------------------------|

Riff 2
[ Tab from: http://www.guitartabs.cc/tabs/h/hurriganes/roadrunner_tab_ver_4.html ]
E---------------------------|---------------------------|
B---------------------------|---------------------------|
G---------------------------|---------------------------|
D---------------------------|---------------------------|
A------2-2-4-4-2-2----------|---------------------------|
E--4-4----------------------|---------------------------|

switch between this two riffs during the verse

The song allso includes some fills starting at 2:10 and a solo,
which I?m not able to figure out.

Lyrics:

Well, I'm a roadrunner, honey
But you can't beat me
Well, I'm a roadrunner, honey
But you can't beat me
Bye-bye, my baby
Baby, baby, can't you see

Well, I'm a hog for you, baby
But you're out of my class
Well, I'm a hog for you, baby
But you're out of my class
Bye-bye, my baby
Baby, baby, you will see

Well, I'm a roadrunner, honey
But you can't beat me
Well, I'm a roadrunner, honey
But you can't beat me
Bye-bye, my baby
Baby, baby, can't you see

Well, I'm a roadrunner, honey
I'm a roadrunner, honey
I'm a roadrunner, honey
I'm a roadrunner, honey
Bye-bye, my baby
Baby, baby, you will see


This is my very first tab, and it may include some wrongs.
For corrections and comments, or if you own other hurritabs
mail me at: hurritabber@hotmail.com
Comments