Hurriganes - My Only One Chords & Tabs

 

My Only One Chords & Tabs

Hurriganes Chords & Tabs

Version: 1 Type: Tab 0 ratings
1 star 2 stars 3 stars 4 stars 5 stars
comments

My Only One Tab

   
---------------------------------------------------------------------
                     My Only One - Hurriganes
---------------------------------------------------------------------

Tabbed by: Jorma
Chords: (C, Am, F, G)
Tuning: Standard


Do you remeber still the night
When you left me crying
Do you know that you broke my heart
When you left me crying
Cause you were my only one 
Yeah my only one
Ooh ho my only one 
Please come back to me 
Do you know what you done to me 
When you hurt me so 
All the time i still dream of you 
Cause you got my love 

solo
e|-----------------------------------------------------------------|
B|-17-15h17-13-12----12-13p12h13~--10-10---10-13-12h13p12-12-13s15-|
G|----------------14--------------------12-------------------------|
D|-----------------------------------------------------------------|
A|-----------------------------------------------------------------|
E|-----------------------------------------------------------------|
[ Tab from: http://www.guitartabs.cc/tabs/h/hurriganes/my_only_one_tab.html ]
e|-----------------------------------------------------------------|
B|-17-15h17-13-12----12-13p12h13~--10-10---10-13-12h13p12-12-13s15-|
G|----------------14--------------------12-------------------------|
D|-----------------------------------------------------------------|
A|-----------------------------------------------------------------|
E|-----------------------------------------------------------------|


e|-------15--------------------15----------------------------------|
B|-15b17----17r-15-17p15-15b17----(15)b17~-------------------------|
G|-----------------------------------------------------------------|
D|-----------------------------------------------------------------|
A|-----------------------------------------------------------------|
E|-----------------------------------------------------------------|

e|-------15--------------------------------------------------------|
B|-15b17----r17-15-17p15-15b17-15-13-------------------------------|
G|-----------------------------------14~---------------------------|
D|-----------------------------------------------------------------|
A|-----------------------------------------------------------------|
E|-----------------------------------------------------------------|

e|-----------------------------------------------------------------|
B|----10-13-15-10-13-15b17p13-15-15~--13qb-13-12-13-15---15---15---|
G|-12-------------------------------------------------12---12----12|
D|-----------------------------------------------------------------|
A|-----------------------------------------------------------------|
E|-----------------------------------------------------------------|

Absolutely correct ;P
Comments