Hurriganes - I Will Stay Chords & Tabs

 

I Will Stay Chords & Tabs

Hurriganes Chords & Tabs

Version: 1 Type: Bass Tab 0 ratings
1 star 2 stars 3 stars 4 stars 5 stars
comments

I Will Stay Bass Tab

Hurriganes
I Will Stay bass tabs
Tab written and submitted by Aleksi Hahko

It should be correct. It is.

Intro

|--------------------------------------------|
|--------------------------------------------|
|--------------------------------------------|
|--0-5-----0-5-----0-5-----0-5----(5-5-5-5)--|

I will stay... (same in solo)
[ Tab from: http://www.guitartabs.cc/tabs/h/hurriganes/i_will_stay_btab.html ]
|--------------------------------------------|
|--------------------------------------------|
|--------------------------------------------|
|-1-1-1-1--3-3-3-3--5-5--5-5-5-5-------------|

In the day...

|--------------------------------------------|
|--------------------------------------------|
|--------------------------------------------|
|-1-1-1-1-1--5-5-5-5-5-----------------------|

In the night...

|--------------------------------------------|
|--------------------------------------------|
|--------------7-7-7-7-7-7-7-7-7-------------|
|-1-1-1-1-1----------------------------------|

Outro is almost the same as intro.
Comments