Hurriganes - Get On Chords & Tabs

 

Get On Chords & Tabs

Hurriganes Chords & Tabs

Version: 1 Type: Chords 0 ratings
1 star 2 stars 3 stars 4 stars 5 stars
comments

Get On Chords

   
Hurriganes - GetOn

Intro

|-8-8-8-8-8-8-8-8-8-------------------------------------------11--------------|
|-8-8-8-8-8-8-8-8-8-11-10-8-10-8----------------------------------------------|
|-------------------11-10-8-10-8-10---------8----10h8----8-10----10-8-10-8----|
|--------------------------------10-8--8-10---10------10-------------------10-|
|-------------------------------------------------------------------------10--|
|-----------------------------------------------------------------------------|
Chords
C F G
|---|---|---|
|---|---|---|
|---|10-|12-|
|10-|10-|12-|
|10-|-8-|10-|
|-8-|---|---|
[ Tab from: http://www.guitartabs.cc/tabs/h/hurriganes/get_on_crd.html ]
C
Just a sweet carolina, just a rockin' little mama
That will leave my baby in old alabama
F
Rockin' in the evening when sun goes down
C
Playing guitar, That's a swinging old town
G F
Rockin' and rollin' just a little while
C
Ain't got no rolling,ain't got no holding

C
Get on
get on baby, get on
F
Get on
C
Get on baby, get on
G F C
Well let me be rock and rolling free
C
Well, old alabama, just a sweet carolina
Rockin' and rollin may leave town
F
Got to be a scoogie, lay on my boogie
C
Let me hear you say you got my hole around
G F
Got to be a scoogie, bim, bomb, bang
C
Ain't got no rolling,ain't got no holding
C
Get on...
C
Go go baby dancing rock and roll
Twist and shout, you'll be rockin' the bowl
F
Just a little baby, she's rolling around
C
Ain't got no rockin' or rollin'in town
G F
Got to be a scoogie of the neighbourhood
C
Ain't got no rolling,ain't got no bowling
Comments