Hurra Torpedo - Total Eclipse Of The Heart Chords & Tabs

 

Total Eclipse Of The Heart Chords & Tabs

Hurra Torpedo Chords & Tabs

Version: 1 Type: Tab 0 ratings
1 star 2 stars 3 stars 4 stars 5 stars
comments

Total Eclipse Of The Heart Tab

   
Song: Total Eclipse Of The Heart
Artist: Hurra Torpedo
Tabbed by: Burbinski

This is a great cover tune. This tab is close to perfect.
Email me if you have any corrections at: burbinski@hotmail.com

Tuneing: Standard (EADGBe)

Intro
|------------------------------------------------------------------------|
|------------------------------------------------------------------------|
|------------------------------------------------------------------------|
|------------------------------------------------------------------------|
|------------------------------------------------------------------------|
|6-6-6-6-6-6-6-6-6-6-6-6-4-4-4-4-4-4-4-4-6-6-6-6-6-6-6-6-4-4-4-4-4-4-4-4-|


|-----------------------------------------------------------------|
|-----------------------------------------------------------------|
|-----------------------------------------------------------------|
|-----------------------------------------------------------------|
|-----------------------------------------------------------------|
|-9-9-9-9-9-9-9-9-7-7-7-7-7-7-7-7-9-9-9-9-9-9-9-9-7-7-7-7-7-7-7-7-|

[ Tab from: http://www.guitartabs.cc/tabs/h/hurra_torpedo/total_eclipse_of_the_heart_tab.html ]
|----------------------------------------------------------------|
|----------------------------------------------------------------|
|----------------------------------------------------------------|
|----------------------------------------------------------------|
|-7-7-7-7-0-0-0-0-0-0-0-0-7-7-7-7-0-0-0-0-0-0-0-0----------------|
|----------------------------------------------------------------|


The strumming is pretty easy, you just have to figure it out for yourself.


    riff A        riff B      riff C       riff D      riff E
|--------------|-----------|-----------|-----------|-----------------|
|--------------|-----------|-----------|-----------|-----------------|
|-----8-6-8----|--6-8---3--|----8---3--|------6-8--|------5-6-6-8----|
|-6-3-8-6-8-X3-|--6-8-3-3--|--6-8-3-3--|--6-8-6-8--|--6-3-5-6-6-8-6--| X2
|-6-3-6-4-6----|--4-6-3-1--|--6-6-3-1--|--6-8-4-6--|--6-3-3-4-4-6-6--|
|-4-1----------|------1----|--4---1----|--4-6------|--4-1---------4--|

    riff F        riff G
|--------9--7---|--------|---------------------------------|
|--------9--7---|--------|---------------------------------|
|--------10-8---|-9------|---------------------------------|
|--------11-9-X4|-9-7-X2-|---------------------------------|
|--------11-9---|-7-7----|---------------------------------|
|-4-6-8--9--7---|---5----|---------------------------------|


riff A X3
riff B
riff C
riff D
riff E (only once)

That is all.
Comments