Huntingtons - Dont Beat Me Up Chords & Tabs

 

Dont Beat Me Up Chords & Tabs

Huntingtons Chords & Tabs

Version: 2 Type: Bass Tab 0 ratings
1 star 2 stars 3 stars 4 stars 5 stars
comments

Dont Beat Me Up Bass Tab

Artist:	The Huntingtons
Title:	Don't Beat Me Up
Album:	Fun And Games
Tabbed by:  Matt Duggan (b6bombr@hotmail.com)
Notes:  this song was originally tabbed by Bryan Davis and i think he was 
	tuned low cause his tab was way off.  this is how i tabbed it.

Played very fast

Intro/Main Riff
G|----------------|----------------|----------------|----------------|
D|-----------4----|-----------4----|-----------4----|-----------4----|
A|-6-6-6-6-6---4-4|-6-6-6-6-6---4-4|-6-6-6-6-6---4-4|-6-6-6-6-6---4-4|
E|----------------|----------------|----------------|----------------|
[ Tab from: http://www.guitartabs.cc/tabs/h/huntingtons/dont_beat_me_up_btab_ver_2.html ]
Verse Riff (2x)
G|----------------|----------------|----------------|----------------|
D|----------------|-4-4-4-4-6-6-6-6|----------------|-4-4-4-4-6-6-6-6|
A|-6-6-6-6-6-6-6-6|----------------|-6-6-6-6-6-6-6-6|----------------|
E|----------------|----------------|----------------|----------------|

Bridge (2x)
G|----------------|----------------|----------------|----------------|
D|----------------|----------------|----------------|----------------|
A|-1-1-1-1-1-1-1-1|-4-4-4-4-4-4-4-4|----------------|----------------|
E|----------------|----------------|-2-2-2-2-2-2-2-2|-4-4-4-4-4-4-4-4|

The layout is:

Intro
Verse
Main
Verse
Main
Bridge
Main
Verse
Main

Now unless my bass was tuned wrong this is it.  Enjoy!
Comments