Hunters And Collectors - Everythings On Fire Chords & Tabs

 

Everythings On Fire Chords & Tabs

Hunters And Collectors Chords & Tabs

Version: 1 Type: Tab 0 ratings
1 star 2 stars 3 stars 4 stars 5 stars
comments

Everythings On Fire Tab

   
Everything’s on Fire
Tabbed by James Greig

Pretty simple this one. Sounds good with a bit of distortion.

Intro/Verse riff
This riff is the main riff through the whole song.

e|--------------------------|
B|--------------------------|
G|--9-------x--9-------x----|
D|--9--9:---x--9--7:---x----|
A|--7--9:---x--7—-7:---x----|
E|-----7:---x-----5:---x----|

On the ‘Living in large rooms and lounges” version there is also this little fill
at the start. Other than that the two versions are identical, except the original
is noticeably faster.

e|-------------------------|
B|-------------------------|
G|-9-----------------------|
D|-9--9----------7---------|
A|-7--9------7/9---9-7-----|
E|----7--5/7---------------|


Chorus
The first two chords are strummed and let ring but it is a bit sparse so you can
strum them as well.

	E	D	B
e|------------------------------|
B|--9:---7:---4--4--x-4-x-4--4--|
G|--9:---7:---4--4--x-4-x-4--4--|
D|--9:---7:---4--4--x-4-x-4--4--|
A|--7:---5:---2--2--x-2-x-2--2--|
E|------------------------------|

Outro
There is just one chord played at the very end of the bridge until the end. The
final chord is also D and let it ring out.
[ Tab from: http://www.guitartabs.cc/tabs/h/hunters_and_collectors/everythings_on_fire_tab.html ]
	D
e|-------------------|
B|--7--7-7--7-7--7---|
G|--7--7-7--7-7--7---|
D|--7--7-7--7-7--7---|
A|--5--5-5--5-5--5---|
E|-------------------|


Lyrics

If I don't come home before midnight
And I call out your name in the dark
You'll know that I've been tempted
And I'll know that I've got no heart
And I'll know I won't be expected
And you'll think we're drifting apart
And I might as well be blowing at the top of the world
When my fingers find your body in the dark
Everything's on fire
Everything's on fire
So if I don't come home before midnight
And I can't find the keyhole in the dark
Burn the place down, make it glow like Christmas
The tenderness that's burning in my heart
Everything's on fire
Everything's on fire
[repeat]
If you can't open your eyes in the morning
If some maniac has been and left his mark
I'll be round to sift through the cinders
Lift the lid and take the thing apart
Everything's on fire
Everything's on fire
[repeat]
So to all you feelers and fumblers
Waiting for the fireworks to start
Do it now-blow it up yourself
Unbutton the butcher in your heart.
And if I don't come home before midnight
And I can't find the keyhole in the dark
You'll know, you'll know that I've been tempted
You'll know, you'll know we're drifting apart.
Everything's on fire
Everything's on fire
Comments