Hunter Hayes - I Want Crazy Chords & Tabs

 

I Want Crazy Chords & Tabs

Hunter Hayes Chords & Tabs

Version: 2 Type: Tab 0 ratings
1 star 2 stars 3 stars 4 stars 5 stars
comments

I Want Crazy Tab

   
-----------------------------------------------------------------
                             I WANT CRAZY (INTRO)  Hunter Hayes
-----------------------------------------------------------------
Tabbed by: Justin Nottingham
E-mail: n/a

Tuning:   EADGBE    Step Down

e|----------0-----4-------------------0------------------------|
B|--0h2h4------0-----0---4/5---5/7-------0--7/9----------------|
G|-------------------------------------------------------------|
D|-------------------------------------------------------------|
A|-------------------------------------------------------------|
E|-------------------------------------------------------------|


e|----------0-----4---------------------------------------------|
B|--0h2h4------0------0---4/5----2/4---2p0----------------------|
G|--------------------------------------------------------------|
D|--------------------------------------------------------------|
A|--------------------------------------------------------------|
E|--------------------------------------------------------------|

[ Tab from: http://www.guitartabs.cc/tabs/h/hunter_hayes/i_want_crazy_tab_ver_2.html ]
e|----------0-----4-----------------0-----------------------------|
B|--0h2h4------0------0--4/5--5/7-------0--7/9--------------------|
G|----------------------------------------------------------------|
D|----------------------------------------------------------------|
A|----------------------------------------------------------------|
E|----------------------------------------------------------------|


e|----------0--------------0------------0---------------0--------|
B|--9/10-------0---7/9-------0-----2/4------0----4/5-------------|
G|---------------------------------------------------------------|
D|---------------------------------------------------------------|
A|---------------------------------------------------------------|
E|---------------------------------------------------------------|

************************************
| /   slide up
| \   slide down
| h   hammer-on
| p   pull-off
| ~   vibrato
| +   harmonic
| x   Mute note
| b   Bend
| pb  Pre-bend
| br  Bend release
| pbr Pre-bend release
| brb Bend release bend
************************************
Comments