Hundred Reasons - Silver Chords & Tabs

 

Silver Chords & Tabs

Hundred Reasons Chords & Tabs

Version: 7 Type: Tab 0 ratings
1 star 2 stars 3 stars 4 stars 5 stars
comments

Silver Tab

This is the correct silver intro and hopefully you will enjoy it ive seen them live
and this is my first tab.


-------------------------------------------------------
------1-----1p0----1-----1p0---------------------------
--------0------------0---------------------------------
-------------------------------------------------------
-------------------------------------------------------
----1-----1------1-----1-------------------------------
[ Tab from: http://www.guitartabs.cc/tabs/h/hundred_reasons/silver_tab_ver_7.html ]
Repeat until it comes to this part.

--------------------------0h1---0h1----------------------0h1---0h1---
--------0--1--3--1--0--1------1-----1---0--1--3--1--0--1----1------1--
---------------------------------------------------------------------
---------------------------------------------------------------------
---3--3--------------------------------------------------------------
---------------------------------------------------------------------
Comments