Hundred Reasons - Silver Chords & Tabs

 

Silver Chords & Tabs

Hundred Reasons Chords & Tabs

Version: 6 Type: Tab 0 ratings
1 star 2 stars 3 stars 4 stars 5 stars
comments

Silver Tab

   
THIS VERSION IS FOR ONE GUITAR. IF YOU HAVE 2 GUITARISTS ONE PLAYS THE CHORDS
AND THE OTHER JUST PLAYS THE SIMPLIFIED RIFF (SEE ALL THE OTHER SUBMISSIONS FOR
THIS SONG).

But no-one likes doing the easy version do they???



pm....| = palm mute

Intro

Repeat...
e||----------------------------||
B||-----1----------1p0---------||
G||.-------0------------0-----.||
D||.--------------------------.||
A||----------------------------||
E||--3----------3--------------||


Main Riff
(All notes same length)
[ Tab from: http://www.guitartabs.cc/tabs/h/hundred_reasons/silver_tab_ver_6.html ]
  pm............................|         pm..|  
e|--------------------------------------------------------
B|--------------------------------------------------------
G|-------------------------------9h10p9--------9h10p9-----
D|------9---10--12--10--9----7-7--------10-7-7--------10--
A|--------------------------------------------------------
E|--8-8---8---8---8---8---8-------------------------------

  pm...................................|         pm..|
-----------------------------------------------------------------|
-----------------------------------------------------------------|
----------------------------------------9h10p9--------9h10p9-----|
--------9----10----12----10---9----------------10-7-7--------10--|
--10-10---10----10----10---10---10--8-8--------------------------|
-----------------------------------------------------------------|

Chords:

Verse - C   A   G   F

Chorus - C   G   C   C   D   G   Bb
         C   G   C   C   A   G   F

Jimmy
Comments