Hundred Reasons - Silver Chords & Tabs

 

Silver Chords & Tabs

Hundred Reasons Chords & Tabs

Version: 1 Type: Bass Tab 0 ratings
1 star 2 stars 3 stars 4 stars 5 stars
comments

Silver Bass Tab

 
ARTIST:	HUNDRED REASONS
SONG  :	SILVER
STYLE :	BASS GUITAR


Especially for Aaron, by Glenn (and Pete)

G--intro-------------------------------------------------------------------------I
D--------------------------------------------------------------------------------I
A--------------------------------------------------------------------------------I
E--3--5--0--1   (repeat X 4 AFTER 2 BARS!)---------------------------------------I

G--------------------------------------------------------------------------------I
D--------------------------------------------------------------------------------I
A---3-333------------------------------------------------------------------------I
E--------5-5-555--3-3-333----1-xxxx1xxxx1xxxx1---(repeat x2 for fast riff)-------I


G--------------------------------------------------------------------------------I
D--------------------------------------------------------------------------------I
A---3-333------------------------------------------------------------------------I
E--------5-5-555--3-3-333----1-xxxx1xxxx1xxxx1---(repeat x 2 for verse)----------I
  See…………friend……..same………………feel it 


G--------------------------------------------------------------------------------I
D--------------------------------------------------------------------------------I
A--3-3333---------3-3333----0-0000-----------------------------------------------I
E---------3-3333--------------------3-3333--1-1111-----(repeat x 2 for chorus)---I

  Say………..wanted…….ask……………..While……….were………down
[ Tab from: http://www.guitartabs.cc/tabs/h/hundred_reasons/silver_btab.html ]
G--------------------------------------------------------------------------------I
D-----------------------5--------------------------------------------------------I
A----2-3-5-3-2----2-3-5---5------------------------------------------------------I
E--3------------3--------------(repeat x 2)--------------------------------------I


G----00-----00------00-----------------------------------------------------------I
D--------------------------------------------------------------------------------I
A--------22------33------5-3-2--(repeat x 2)-------------------------------------I
E--33----------------------------------------------------------------------------I

G--------------------------------------------------------------------------------I
D--------------------------------------------------------------------------------I
A--3-3-333-----------------------------------------------------------------------I
E--------5-5-555--3-3-333----1-xxxx1xxxx1xxxx1---(over top of keyboard bit)------I

G--------------------------------------------------------------------------------I
D--------------------------------------------------------------------------------I
A--3-3333---------3-3333----0-0000-----------------------------------------------I
E---------3-3333--------------------3-3333--1-1111-----(repeat til end)----------I
Say………………wanted……….ask……………while…………were……………down

This was created so we can do a cover so it follows the chords and guitar. Don’t complain if its not 100% right but its pretty much 100% when you look at the lead guitar.
Comments