Hundred Reasons - Led Chords & Tabs

 

Led Chords & Tabs

Hundred Reasons Chords & Tabs

Version: 2 Type: Tab 0 ratings
1 star 2 stars 3 stars 4 stars 5 stars
comments

Led Tab

These are tabs for the song LED by Hundred Reasons, off the Great Test single CD 1

Intro
-------------------------------------------
-------------------------------------------
-------------------------------------------
-5-55-7-7-10-10------5-55-------5-55-------
-3-33-5-5--8--8-7^---3-33-7^----3-33-7^----
-------------------------------------------

Verse (First 3 riffs)
-------------------------------------------
-------------------------------------------
-5-55-7-7-----------7-----------7----------
-5-55-7-7-3-3-33----7-3-3-33----7-3-3-33---
-3-33-5-5-3-3-33----5-3-3-33----5-3-3-11---
----------1-1-11------1-1-11------1-1-11---

Third time, while the "We will not drink from the poisoned seas of the restless"
bit comes in, the second guitar plays this riff... (Same as intro riff only fuller)

|Guitar 2
|-------------------------------------------
|-------------------------------------------
|-5-55-7-7-10-1010------5-55------5-55------
|-5-55-7-7-10-1010------5-55------5-55------
|-3-33-5-5--8--8-8-7^---3-33-7^---3-33-7^---
|-------------------------------------------

Guitar 1, fourth repeat of riff...

-------------------------------------------
-------------------------------------------
-5-55-7-7-----------7-----------7--------5-
-5-55-7-7-3-3-33----7-3-3-33----7-3-3-33-5-
-3-33-5-5-3-3-33----5-3-3-33----5-3-3-11-3-
----------1-1-11------1-1-11------1-1-11---

"You been in virtue
(Somewhere, somehow)
I would never forget how much love came my way
(From you, right now...)
We will not drink from the poisoned seas of the restless
(Takes me back to...)
Memories of when I was safely in your arms... proud."

Bridge
----------------------------------
----------------------------------
-5-5-5-5-7-7-7-7-9-9-9-9-10101010-
-5-5-5-5-7-7-7-7-9-9-9-7-8-8-8-8--
-3-3-3-3-5-5-5-5-7-7-7-7-8-8-8-8--
----------------------------------
PM . .   . . .   . . .   . . .

Chorus
--------------------------------------
--------------------------------------
-5--5-5--1-1-1-1-1-1-1-1-1-1-1-1-1-1--
-5--5-5--2-2-2-2-2-2-2-2-2-2-2-2-2-2--
-3--3-3--2-2-2-2-2-2-2-2-2-2-2-2-2-2--
---------0-0-0-0-0-0-0-0-0-0-0-0-0-0--
"We gotta change things, head for the...
[ Tab from: http://www.guitartabs.cc/tabs/h/hundred_reasons/led_tab_ver_2.html ]
----------------------------
----------------------------
------7--7-5--5-5-5-5-5-5-5-
-3--3-7--7-5--5-5-5-5-5-5-5-
-3--3-5--5-3--3-3-3-3-3-3-3-
-1--1-----------------------
 Same destination..."   

Then just repeat the same riff as the vocals go

"Change things, how could we wait so long?
Rest(?) now, asleep in your arms forever
Photos agreed when we felt the same"

Then we go into the second verse, which is the same as the first verse albeit with different lyrics...

"It's like a brand new
(resource, life source(?) )
I'm hoping to alter the passing of time to
(search out, somehow)
Then I could spend all the rest of my days with you
(Always as of right now)
And I will hold you safely in my arms... Proud..."

Then, best bit of the whole song... THE INTERLUDE AND SOLO!!!

Interlude (x2)
-------------------------------------------
-------------------------------------------
------7p5-----7p5---------7p5---7\5-7/9----
-------------------------------------------
--7-7-----7-7---------7-7------------------
-------------------------------------------

"SOLO!!!"

-------------------------------------
-13--15--13-15-15^-13---15^-13~------
-------------------------------------
-------------------------------------
-------------------------------------
-------------------------------------

---------------------------------
-13-12-10------------------------
----------12-10-9-10-12-10p9-----
-----------------------------10--
---------------------------------
---------------------------------

----------------------
----------------------
-5/7-5~--5/7-7-7^-5~--
----------------------
----------------------
----------------------

--------------------------------------------
-13~-----13-13-15~------15-15-17-17^--13~---
--------------------------------------------
--------------------------------------------
--------------------------------------------
--------------------------------------------

----------------------------------
-13--13--13--13--15--15--15--15---
---12--12--12--12--12--12--12--12-
----------------------------------
----------------------------------
----------------------------------

--------------15--------
-17^17-17^17-----13-13~-
------------------------
------------------------
------------------------
------------------------

Now, just repeat the chorus again!
Comments